música
Buscador

Acorde de Lovestoned - Justin Timberlake

Letra de Lovestoned

NO Capo     Main Riff 

-------



e|-------------------------------|

B|-------------------------------|

G|-------------------------------|

D|------------------1---3--------|

A|-----------1--3----------------|

E|----1---4----------------1-----|





or try it this way if you can



e|-------------------------------|

B|------------------4---6--------|

G|-----------3--5----------------|

D|----3---6---------1---3--3-----|

A|-----------1--3----------------|

E|----1---4----------------1-----|



CAPO on 1st Chorus Chords

-----------



C Em

Those flashing lights come from everywhere

C Em

The way they hit her I had to stop and stare

C Em

She's got me love stoned, man

Am

I swear she's bad and she knows

B

I think that she knows





* I may have mixed up the C and Am chords

https://www.coveralia.com/acordes/lovestoned-justin-timberlake.php

Let me know which you think sounds better







ocultar esta pestaña NO Capo Guitar Piece - 2:39

-------



e|---13--13-13--...----|

G|---13--13-13--...----|

B|---13--13-13--...----|

D|---15--15-15--...----|

A|---------------------|

E|---------------------|





I Think She Knows Interlude

...........................





CAPO on 1st

-----------



e|---------------------------------------------------------------------------|

B|------------------------------------3-3-3-3-3-3-3-3-5-5-5------------------|

G|----4-4-4-4-4-4-4-4-2-2-2-0-0-0-0-0-4-4-4-4-4-4-4-4-7-7-7-4-4-4-4-4-4------|

D|----5-5-5-5-5-5-5-5-4-4-4-2-2-2-2-2-5-5-5-5-5-5-5-5-4-4-4-5-5-5-5-5-5------|

A|----7-7-7-7-7-7-7-7-5-5-5-3-3-3-3-3-----------------------7-7-7-7-7-7------|

E|---------------------------------------------------------------------------|



Em D Cadd9 G Dsus2 Em









Letra subida por: Anónimo

El acorde de Lovestoned de Justin Timberlake es una versión de la canción original realizada por colaboradores/usuarios de Coveralia.

¿Has encontrado algún error en esta página? Envíanos tu corrección del acorde