música
Buscador

Acorde de Love Reign O'er Me - The Who

Letra de Love Reign O'er Me

E 

Only love

Can make it rain

D

The way the beach is kissed by the sea.

E

Only love

Can make it rain

D

Like the sweat of lovers'

Laying in the fields.



E C

Love, Reign o'er me.

E C E

Love, Reign o'er me, rain on me.



e|-15-14-12--------------------------------------------------------------|

B|-------------15-12------------------------------------------------------|

G|---------------------14-12----------------------------------------------|

D|-----------------------------14-12--------------------------------------|

A|-------------------------------------14-12-------------10-12----------|

E|---------------------------------------------15-12-10------------------|



E

Only love

Can bring the rain

D

That makes you yearn to the sky.

https://www.coveralia.com/acordes/love-reign-o-er-me-the-who.php

E

Only love

Can bring the rain

D

That falls like tears from on high.



E C

Love, Reign o'er me.

E C E

Love, Reign o'er me, rain on me.



e|-15-14-12--------------------------------------------------------------|

B|-------------15-12------------------------------------------------------|

G|---------------------14-12----------------------------------------------|

D|-----------------------------14-12--------------------------------------|

A|-------------------------------------14-12-------------10-12----------|

E|---------------------------------------------15-12-10------------------|



D

On the dry and dusty road

The nights we spend apart alone

E

I need to get back home to cool cool rain.

D

I can't sleep and I lay and I think

The nights are hot and black as ink

E

Oh God, I need a drink of cool cool rain.

Letra subida por: Anónimo

El acorde de Love Reign O'er Me de The Who es una versión de la canción original realizada por colaboradores/usuarios de Coveralia.

¿Has encontrado algún error en esta página? Envíanos tu corrección del acorde