música
Buscador

Acorde de Long Road To Ruin - Foo Fighters

Letra de Long Road To Ruin

Introdução/verso 

-----------



Guitarra 1



|-----0---------3-|-----0-------------|

|-1-3---3-1-0-1---|-1-3---3-1-0-1-----|

|-----------------|-------------------|

|-----------------|----------------3--|

|-----------------|-------------------|

|-----------------|-------------------|



|-----0---------3-|-----0-------------|

|-1-3---3-1-0-1---|-1-3---3-1-0-1-1---|

|-----------------|-------------------|

|-----------------|-------------------|

|-----------------|-------------------|

|-----------------|-------------------|



Guitarra 2



C

Hey now don't make a sound

F

Say have you heard the news today



One flag was taken down

C

To raise another in its place

C

A heavy cross you bear

F

A stubborn heart remains unchanged



No harm, no life, no love



No stranger singing in your name



pre refrão

----------



Guitarra 1

|----------------------------|-------------------------------|

|----------------------------|-------------------------------|

|----------------------------|-------------------------------|

|----------------------------|----------------------7-7-7-7--|

|-0---0--2---2--3---3--2---2-|-0---0--2---2--3---3--5-5-5-5--|

|---1------3------5------3---|---1------3------5-------------|



Guitarra 2



Am Gsus4/B

Maybe the season

C Gsus4/B

The colors change in the valley skies

Am Gsus4/B

Dear God, I've sealed my fate

C

Running through hell

D

Heaven can wait



F

Long road to ruin

C

There in your eyes

F C C-Gsus4/B

Under the cold streetlights

Am

No tomorrow

D F

No dead end in sight



final do refrão (em F)



|---------------------------------|

|---------------------------------|

|---------------------------------|

|-3-3-3-3-5-5-5-5-7-7-7-7-9-9-9-9-|

|---------------------------------|

|-1-1-1-1-3-3-3-3-5-5-5-5-7-7-7-7-|





Verso 2

-------



Guitarra 1



|-----0---------3-|-----0-------------|

|-1-3---3-1-0-1---|-1-3---3-1-0-1-----|

|-----------------|-------------------|

|-----------------|----------------3--|

|-----------------|-------------------|

|-----------------|-------------------|





|-----0---------3-|-----0-------------|

|-1-3---3-1-0-1---|-1-3---3-1-0-1-1---|

|-----------------|-------------------|

|-----------------|-------------------|

|-----------------|-------------------|

|-----------------|-------------------|



C

Let's say we take this town

F

No king or queen of any state



Get up to shut it down

C

Open the streets and raise the gates



I know a wall to scale

F

I know a field without a name



Head on without a care



Before it's way too late





pré refrão

---------



Guitarra 1



|----------------------------|-------------------------------|

|----------------------------|-------------------------------|

|----------------------------|-------------------------------|

|----------------------------|----------------------7-7-7-7--|

|-0---0--2---2--3---3--2---2-|-0---0--2---2--3---3--5-5-5-5--|

|---1------3------5------3---|---1------3------5-------------|



Am Gsus4/B

Maybe the season

C Gsus4/B

The colors change in the valley skies

Am Gsus4/B

Dear God, I've sealed my fate

C

Running through hell

D

Heaven can wait

https://www.coveralia.com/acordes/long-road-to-ruin-foo-fighters.php



F

Long road to ruin

C

There in your eyes

F C C-Gsus4/B

Under the cold streetlights

Am

No tomorrow

D F

No dead end in sight



final do refrão (em F)





|---------------------------------|

|---------------------------------|

|---------------------------------|

|-3-3-3-3-5-5-5-5-7-7-7-7-9-9-9-9-|

|---------------------------------|

|-1-1-1-1-3-3-3-3-5-5-5-5-7-7-7-7-|





ponte

------



Cadd9 Gsus4 Cadd9

For every piece to fall in place

Gsus4 Cadd9

Forever gone without a trace

Gsus4

Your horizon takes its shape

Am7/G Gsus4

No turning back, don't turn that page





Guitarra 1



|----------------------------|-------------------------------|

|----------------------------|-------------------------------|

|----------------------------|-------------------------------|

|----------------------------|----------------------7-7-7-7--|

|-0---0--2---2--3---3--2---2-|-0---0--2---2--3---3--5-5-5-5--|

|---1------3------5------3---|---1------3------5-------------|





Am7 Gsus4/B C

Come now, I'm leaving here tonight

Gsus4/B Am7

Come now, let's leave it all behind

Gsus4/B

Is that the price you pay

C

Running through hell

D

Heaven can wait

ocultar esta pestaña

Solo

----

E|-------------------------|-------------------|---------------------|

B|-----8-8-----------------|------------8-8----|---------------------|

G|-----------9b-7h9p7-\5-7-|5---------------9b-|7-9-7-5-----5-h7-p5--|

D|-5/7---------------------|--7-5--5-/7--------|--------7-5---------7|

A|-------------------------|-------------------|---------------------|

E|-------------------------|-------------------|---------------------|



E|------------------------------------|----------------------------|

B|------------------------------------|----------------------------|

G|5-----------------------------------|----------------------------|

D|--7-p5---5-h7-p5---5-h7-p5----------|-----------------------5-h7-|

A|-------7---------7---------7-5-h7-p-|5-h7-p--5---------5-h7------|

E|-----------------------------------8|------8---8-5-8-8-----------|



E|------------------|----------------------|--------------------|

B|5-5------5-5------|----------------------|--------------------|

G|5-5------5-5------|5-7b-7b-7b-7b-7b-7r---|5-7-5-h7-p5---------|

D|----5-h7-----7-5--|----------------------|--------------------|

A|------------------|----------------------|--------------------|

E|------------------|----------------------|--------------------|



E|------------------------|------------------|

B|5--------5--------5-----|------------------|

G|5--------5--------5-----|------------------|

D|--7-p5-----7-p5-----7-p5|--5---------------|

A|-------5--------5-------|5---7-p5---5------|

E|------------------------|---------8---8-5--|



Guitarra 2: F - C - F - C - (C-Gsus4/B) - Am - D (x2)



Refrão

------



F

Long road to ruin

C

There in your eyes

F C C-Gsus4/B

Under the cold streetlights

Am

No tomorrow

D F

No dead end in sight



F

Long road to ruin

C

There in your eyes

F C C-Gsus4/B

Under the cold streetlights

Am

No tomorrow

D F

No dead end in sight



F

Long road to ruin

C

There in your eyes

F C C-Gsus4/B

Under the cold streetlights

Am

No tomorrow

D F

No dead end in sight



final do refrão (em F)



|---------------------------------|

|---------------------------------|

|---------------------------------|

|-3-3-3-3-5-5-5-5-7-7-7-7-9-9-9-9-|

|---------------------------------|

|-1-1-1-1-3-3-3-3-5-5-5-5-7-7-7-7-|



|-------------------------------------------------|-----|

|-------------------------------------------------|-----|

|-------------------------------------------------|-----|

|-10-10-10-10-12-12-12-12-14-14-14-14-15-15-15-15-|-10>-|

|-------------------------------------------------|-----|

|-8--8--8--8--10-10-10-10-12-12-12-12-13-13-13-13-|-8>--|



(termina em C)

Letra subida por: Anónimo

El acorde de Long Road To Ruin de Foo Fighters es una versión de la canción original realizada por colaboradores/usuarios de Coveralia.

¿Has encontrado algún error en esta página? Envíanos tu corrección del acorde