música
Buscador

Acorde de Loco (Feat. Enrique Iglesias) - India Martinez

Letra de Loco (Feat. Enrique Iglesias)

       G

e|------------------------|

B|----0---1---0----0---1--|

G|-----0---0--------0---0-|

D|------0---0--------0---0|

A|------------------------|

E|----3------------3------|





G

e|-----------------------------------------|

B|----0---1---0---------------------0---1--|

G|-----0---0-------------------------0---0-|

D|------0---0-------------------------0---0|

A|-----------------------------------------|

E|----3-----------------------------3------|

Te pido de rodillas, Luna no te vayas

D

e|-----------------2--3--2--------2--3--2----|

B|------------------3--3-----------3--3------|

G|-------------------2--2-----------2--2-----|

D|-----------------0--------------0----------|

A|-------------------------------------------|

E|-------------------------------------------|

Alumbrarle la noche,a ese corazón

Em

e|-----------------0---2----3----------------|

B|----------------0--0---0-------------------|

G|---------------0----0----0-----------------|

D|--------------2----------------------------|

A|-------------2-----------------------------|

E|------------0------------------------------|

Desilusionado

C

e|-------------------------------------------|

B|-----------------1---3----1----------------|

G|-------------------0---0-------------------|

D|--------------------2---2------------------|

A|-----------------3-------------------------|

E|-------------------------------------------|

a veces maltratado



G

No te perdonaré



Si me dejas solo

D

Con los sentimientos



Que pasan como el viento

Em

Lo revuelven todo

C

Y me vuelven loco





CORO:



C

Loco



Por besar tus labios

D

Sin que quede nada por dentro de mí

G

Diciéndotelo todo



C

Yo



No te perdonaré

D

Si me dejas por dentro con ese dolor

G

No te perdonaré

D

Si me vuelves loco (Si me vuelves loco)

https://www.coveralia.com/acordes/loco--feat--enrique-iglesias--india-martinez.php





C Em G

Ay ay ay ay… Ay ay ay ay…





G

Te pido de rodillas (Uno y mil perdones)



Que al llegar la aurora (No me digas adiós)

D

No dejes ir el llanto (De tantas canciones)



De una luna rota (Como una guitarra)

Em

Por tantas promesas (Que se van volando)

C

Que me vuelven loco (Ay ay ay ay…)





CORO:



C

Loco



Por besar tus labios

D

Sin que quede nada por dentro de mí

G

Diciéndotelo todo



C

Yo



No te perdonaré (No Te Perdonare)

D

Si me dejas por dentro con ese dolor

G

No te perdonaré

D

Si me vuelves loco (Si me vuelves loco)





(C - Am - Em) X2





Coro:

C

Y es que estoy loco



Por besar tus labios

D

Sin que quede nada por dentro de mí

G

Diciéndotelo todo



C

Yo



No te perdonaré (No te perdonaré)

D

Si me dejas por dentro con ese dolor

G

No te perdonaré

D

Si me vuelves loco



G

e|-----------------------------------------|

B|----0---1---0---------------------0---1--|

G|-----0---0-------------------------0---0-|

D|------0---0-------------------------0---0|

A|-----------------------------------------|

E|----3-----------------------------3------|

Te pido de rodillas, Luna no te vayas

Discos en los que aparece este acorde: Dual

El acorde de Loco (Feat. Enrique Iglesias) de India Martinez es una versión de la canción original realizada por colaboradores/usuarios de Coveralia.

¿Has encontrado algún error en esta página? Envíanos tu corrección del acorde