música
Buscador

Acorde de Lluvia En Soledad - Celtas Cortos

Letra de Lluvia En Soledad



G Em C D

E---------------------------------------------------------------

B---------------------------------------------------------------

G-----------------9-7-----------------------9-7-----------------

D-------7-9---7-9-----9-7-------------7-9-------9----9-7--------

A--9-10-------------------10-7---9-10-------------10-------9-10-

E---------------------------------------------------------------





G Em C D G

E---------------------------------------------------------------

B-------------------------------------------------------------7-

G-----------9-7-------------------------------------------7-9---

D-7-9---7-9-----9-7----------------7-9---10-9-7-----------------

A-------------------10-7----7-9-10--------------10-9-10---------

E------------------------10-------------------------------------





C G C D G

E-------------------------------------------------7-------------

B8---7-7--------------------7-8---7-7-----------------10-10-8---

G--------9-7---7--------7-9-----------9-7-------7-------------9-

D------------9---9------------------------9-7-------------------

A------------------10-------------------------------------------

E---------------------------------------------------------------





Em C D G

E---------------------------------------------------------------

B8--------------------------------------------------------------

G--9-7-----------------9-7--------------------------------------

D------9-----------7-9-----9-7----------------------------------

A--------10---9-10-------------10-7-10-10-----------------------

E---------------------------------------------------------------







Now, the CHORUS:





G Em

Si hay si temblor

C D

la lluvia cae en soledad

G Em

Si hay si temblor

C D G

no llamas si no vendr s.

https://www.coveralia.com/acordes/lluvia-en-soledad-celtas-cortos.php









And the verses:





G Bm

Ahora recuerdo tus manos

C D

tu ausencia ahora es soledad

G Bm

en mi calle ya no hay crios

C D G

y mi jard¡n seco est





Si... ahora recuerdo tu cara

tu fantasma quiere hablar

y junto a mi est en la cama

pero calor no me da.



Si,... RIFF + CHORUS



Juntos hicimos la casa

a imagen de nuestro amor

fuiste y qued¢ tu fantasma

y la casa se cay¢.



Si... ahora recuerdo tus risas

que lagrimas nos cost¢

y ahora ya no somos nada

ni tu fantasma ni yo.



Si... RIFF + CHORUS



Los dias se quedan en nada

recuerdos de nuestro amor

le doy pena a tu fantasma

y consuelo a mi dolor



Si... ahora recuerdo tus ojos

clavados en mi canci¢n

y mi canci¢n me recuerda

a tu fantasma y mi amor.



RIFF

Letra subida por: Anónimo

El acorde de Lluvia En Soledad de Celtas Cortos es una versión de la canción original realizada por colaboradores/usuarios de Coveralia.

¿Has encontrado algún error en esta página? Envíanos tu corrección del acorde