Quantcast
música
Buscador

Acorde de Live And Let Die (Live) - Guns N' Roses

Letra de Live And Let Die (Live)

G               Bm              C            D
  When you were young and your heart was an open book
G             Bm               Em
  You used to say live and let live.
   D                 D                G
 (You know you did, you know you did, you know you did.)
G             Bm            Em                C
  But if this ever changing world in which we live in
A                   D
  Makes you give in and cry

E|-----------|---------|
B|-----------|---------|
G|-----------|---------|
D|--0--2--3--|---------|
A|-----------|---------|
E|-----------|---------|

Say: live and let die!  Live and let die!


SOLO:
E|----------------------------------------|
B|----------------------------------------|
G|----------------------------------------|
D|---0--2--3--------0--2--3---------5--3--|
A|------------0--2------------0--2--------|
E|----------------------------------------|

C                         G
  What does it matter to ya

G
  When you got a job to do

         D
you got to do it well
            E5                    F5
You got to give the other fella hell


----SOLO----


G             Bm               Em
  You used to say live and let live.
   D                 D                G
 (You know you did, you know you did, you know you did.)
G             Bm            Em                C
  But if this ever changing world in which we live in
A                   D
  Makes you give in and cry

E|-----------|---------|
B|-----------|---------|
G|-----------|---------|
D|--0--2--3--|---------|
A|-----------|---------|
E|-----------|---------|

Say: live and let die!  Live and let die!


SOLO:
E|----------------------------------------|
B|----------------------------------------|
G|----------------------------------------|
D|---0--2--3--------0--2--3---------5--3--|
A|------------0--2------------0--2--------|
E|----------------------------------------|

This is the song. But playing that I thought that you can also play it this way:

G               D              Em           C
  When you were young and your heart was an open book
G             Bm                Em
  You used to say: Live and let live.
 C                 G                D
(You know you did, you know you did you know you did...)
G             Bm            Em                C
  But if this ever changing world in which we live in
  A          D
  Makes you give in and cry.....Say: Live and let die! Live and let die!

E |--------------------------------------------------------------------|
B |--------------------------------------------------------------------|
G |--12--14--15----------7--9--10-----------5--3-----------------------|
D |--12--14--15----------7--9--10-----------5--3-----------------------|
A |--------------------------------------------------------------------|
E |--------------------------------------------------------------------|
                                                                  2x


Letra subida por: Anónimo

Discos en los que aparece este acorde: Live And Let Die (Cd Single)

El acorde de Live And Let Die (Live) de Guns N' Roses es una versión de la canción original realizada por colaboradores/usuarios de Coveralia.

¿Has encontrado algún error en esta página? Envíanos tu corrección del acorde