música
Buscador

Acorde de Life Of Illusion - Foo Fighters

Letra de Life Of Illusion

 INTRO 



Guitar I:

D

E|----------------------------|------------------------------------------|

B|----------------------------|------------------------------------------|

G|----------------------------|------------------------------------------|

D|------------------0----2--0-|-4--4--x--x--4--4--x--x--4--4--x--x--4--4-|

A|-------0----2---0----4----0-|-5--5--x--x--5--5--x--x--5--5--x--x--5--5-|

D|-0-2-4---4------------------|-0--0--x--x--0--0--x--x--0--0--x--x--0--0-|(2x)



G

Sometimes I can't help the feeling that I'm

D

Living a life of illusion

G

And oh, why can't we let it be

D

And see through the hole in this wall of confusion

A

I just can't help that feeling I'm

G D

Living a life of illusion



Guitar I:

D

E|----------------------------|------------------------------------------|

B|----------------------------|------------------------------------------|

G|----------------------------|------------------------------------------|

D|------------------0----2--0-|-4--4--x--x--4--4--x--x--4--4--x--x--4--4-|

A|-------0----2---0----4----0-|-5--5--x--x--5--5--x--x--5--5--x--x--5--5-|

D|-0-2-4---4------------------|-0--0--x--x--0--0--x--x--0--0--x--x--0--0-|(2x)



Guitar II:



e|----------------------------|-----------------------------------------------|

B|----------------------------|-----------------------------------------------|

G|----------------------------|-----------------------------------------------|

D|----------------------------|-------------16-16-16\14-14-14\12-12/16~ ------|

A|----------------------------|-----------------------------------------------|

D|----------------------------|-----------------------------------------------|



e|----------------------------|-----------------------------------------------|

B|----------------------------|-----------------------------------------------|

G|----------------------------|-----------------------------------------------|

D|----------------------------|----------------16-16-16-14-14-14-12-11--------|

A|----------------------------|----------------------------------------10~ ---| ( a little whammy)

D|----------------------------|-----------------------------------------------|





Guitar I:

G

Pow right between the eyes

D

Oh, how nature loves her little surprises

G

Wow it all seems so logical now

D

It's just one of her better disguises

A

And it comes with no warning

G D A G

Nature loves her little surprises

D

Continual crisis

https://www.coveralia.com/acordes/life-of-illusion-foo-fighters.php



SOLO

Guitar I: G A G A G A G D G A G A D



Guitar II:



e|---------------------------------------------------------------------------|

B|---------------------------------------------------------------------------|

G|-17-14---------------------------------------------------------------------|

D|-------15-17~--------------------------------------------------------------|

A|-------------------------15-12-9--10-12~ ( a little whammy )---------------|

D|---------------------------------------------------------------------------|



(Those are 12's and 14's)

x8 x8

e|---------------------------------------------------------------------------|

B|-1212121212121212-1414141414141414-----------17----------------------------|

G|-1212121212121212-1414141414141414-----13/14----14-13-11~ -----------------|

D|---------------------------------------------------------------------------|

A|---------------------------------------------------------------------------|

D|---------------------------------------------------------------------------|



e|------17--17--17--17--17--17--17/5 (release as you slide)------------------|

B|-16\17--17--17--17--17--17--17---------------------------------------------|

G|---------------------------------------------17-14-------------------------|

D|---------------------------------------------------15-17/5-----------------|

A|-----------------------------------------------------(release as you slide)|

D|---------------------------------------------------------------------------|





Theres a little more at the end but I cant make it out.







D

E|----------------------------|------------------------------------------|

B|----------------------------|------------------------------------------|

G|----------------------------|------------------------------------------|

D|------------------0----2--0-|-4--4--x--x--4--4--x--x--4--4--x--x--4--4-|

A|-------0----2---0----4----0-|-5--5--x--x--5--5--x--x--5--5--x--x--5--5-|

D|-0-2-4---4------------------|-0--0--x--x--0--0--x--x--0--0--x--x--0--0-|(2x)



G

Hey, don't you know it's a waste of your day

D

Caught up in endless solutions

G

That have no meaning, just another hunch

D A

Based upon jumping conclusions

G D A

Caught up in endless solutions

G D A

Backed up against a wall of confusion

G D

Living a life of illusion



D

E|----------------------------|----|

B|----------------------------|----|

G|----------------------------|----|

D|------------------0----2--0-|-4--|

A|-------0----2---0----4----0-|-5--|

D|-0-2-4---4------------------|-0--|

Letra subida por: Anónimo

Discos en los que aparece este acorde: Medium Rare

El acorde de Life Of Illusion de Foo Fighters es una versión de la canción original realizada por colaboradores/usuarios de Coveralia.

¿Has encontrado algún error en esta página? Envíanos tu corrección del acorde