música
Buscador

Acorde de La Pelotona - Cartel De Santa

Letra de La Pelotona

Intro:



--------------------------------------

--------0----------------0-------1-0--

------4---------0-----2-------2------- Se repite 2 veces

--4/5-----5---2---2/4-------1---------

------------3-------------2-----------

--------------------------------------



Em

Viajo en silencio y no expreso sentimientos

B7

Pero tu bien sabes que te llevo aquí adentro

Em

cuando llega la noche y es la hora de partir

B7

volviendo tu silueta alejándose de mi

Em

un profundo sentimiento se apodera de mi cuerpo

B7

y es que si no estoy contigo es como si estuviera muerto

Em

tristezas se apoderan de mi mente y de mi alma

B7

porque sólo a tu lado puedo conocer la calma

Em

se tiene mucho el tiempo que no estas tu conmigo

B7

pero me parece eterno y me pierdo en el olvido

Em

el viento me acaricia y me recuerda a tus manos

B7

la brisa de la noche me hace pensar en tus labios

Em

el brillo de la luna es igual al de tus ojos,

B7

sabes que sin ti tan sólo soy un despojo

Em

y aqui sobres mi cama el aroma de tu cuerpo

B7

que me mantiene vivo y me leva al firmamento





PRECORO:

Em

eres lo mejor que en mi vida ha pasado

B7

te juro pierdo el rumbo cuando no estás a mi lado

Em

el viento me repite, tu nombre a cada instante

B7

la brisa de la noche me recuerda lo distante





CORO:



----------------0-0----------------------------------7-7-------------------------

----------------0-0-----------1---1---0--------------0-0----------1---1---0------

----------------0-0---------2---2---2----------------0-0--------2---2---2--------

----------------2-2-------1-----------------------------------1------------------

----------------2-2-----2----------------------------7-7----2--------------------

----------------0-0--------------------------------------------------------------

que se encuentran tus labios y yo sigo aquí





------0---0---0------------------

------0---0---0---------1-0-1----

------0---0---0-------2-------2-- Se repite 4 veces

----2---2---2---2---1------------

--2---------------2--------------

---------------------------------

o u o u o u o u ooh



Em

cuando estoy contigo cada día es alegría

B7

pero lejos de ti me sumerjo en la agonía

Em

del recuerdo de tus besos y el sabor de tu saliva

B7

despierto en las madrugadas y abrazo una pinche almohada,

Em

deseando fueras tu la que comparte mi cama

https://www.coveralia.com/acordes/la-pelotona-cartel-de-santa.php

B7

te juro que estremezco cuando no estás tu conmigo

Em

quisiera mandarle al tiempo poder hacer eternos

B7

todos los momentos en que me levas al cielo

Em

mi vida es codiciada, muchos quieren mi cabeza

B7

la verdad no me preocupa si la muerte se atraviesa



Em

con tal de estar contigo juro resucitaría

B7

para estar a tu lado lo que te resta de vida





PRECORO:

Em

eres lo mejor que en mi vida ha pasado

B7

te juro pierdo el rumbo cuando no estás a mi lado

Em

el viento me repite, tu nombre a cada instante

B7

la brisa de la noche me recuerda lo distante





CORO:



----------------0-0----------------------------------7-7-------------------------

----------------0-0-----------1---1---0--------------0-0----------1---1---0------

----------------0-0---------2---2---2----------------0-0--------2---2---2--------

----------------2-2-------1-----------------------------------1------------------

----------------2-2-----2----------------------------7-7----2--------------------

----------------0-0--------------------------------------------------------------

que se encuentran tus labios y yo sigo aquí





------0---0---0------------------

------0---0---0---------1-0-1----

------0---0---0-------2-------2-- Se repite 2 veces

----2---2---2---2---1------------ (sin voz)

--2---------------2--------------

---------------------------------





------0---0---0------------------

------0---0---0---------1-0-1----

------0---0---0-------2-------2-- Se repite 3 veces

----2---2---2---2---1------------

--2---------------2--------------

---------------------------------

o u o u o u o u ooh





------0---0---0------------------

------0---0---0---------1-0-1----

------0---0---0-------2-------3-- En la 4 cambia la última nota

----2---2---2---2---1------------

--2---------------2--------------

---------------------------------

o u o u o u o u ooh





----------------0-0----------------------------------7-7-------------------------

----------------0-0-----------1---1---0--------------0-0----------1---1---0------

----------------0-0---------2---2---2----------------0-0--------2---2---2--------

----------------2-2-------1-----------------------------------1------------------

----------0-----2-2-----2-----------------------0----7-7----2--------------------

----------------0-0--------------------------------------------------------------





FINAL

----------------0-0---------------------------------2---0---2-----2---0-----------

----------------0-0-----------1---1---0---------0-4-----------4-------------------

----------------0-0---------2---2---2---------0-----------------------------------

----------------2-2-------1-------------------------------------------------------

----------0-----2-2-----2-------------------2-------------------------------------

----------------0-0-------------------------0-------------------------------------





Letra subida por: Anónimo

Discos en los que aparece este acorde: Cartel De Santa , Greatest Hits

El acorde de La Pelotona de Cartel De Santa es una versión de la canción original realizada por colaboradores/usuarios de Coveralia.

¿Has encontrado algún error en esta página? Envíanos tu corrección del acorde