música
Buscador

Acorde de Los Lobos - La Bamba - All The Beer Songs Disc Three



1-----------------------

2-----------------------

3----------0----2-0-----

4--------2---3----------

5--0-2-3----------------

6-3---------------------



1--------------------------

2--------------------------

3--------------------------

4------0-3-3-2-0-----------

5----2-----------3---------

6--3-----------------------



1--------------------------

2--------------------------

3---0----2-0---------------

4-2---3--------------------

5--------------------------

6--------------------------



C F G

Para bailar la bamba

C F G C F G

para bailar la bamba se necesita una poca de gracia

C F G C F G

una poca de gracia pa mi pa ti hay arriba y arriba

C F G C F G

hay arriba y arriba por ti seré por ti seré por ti seré.





C F G

Yo no soy marinero

C F G C F G

yo no soy marinero soy capitán soy capitán soy capitán



C F G

https://www.coveralia.com/acordes/la-bamba-los-lobos.php

Bamba bamba

C F G

bamba bamba

C F G

bamba bamba

C F G

bamba





C F G

Para bailar la bamba

C F G C F G

para bailar la bamba se necesita una poca de gracia

C F G C F G

una poca de gracia pa mi pa ti hay arriba y arriba





C F G

Para bailar la bamba

C F G C F G

para bailar la bamba se necesita una poca de gracia

C F G C F G

una poca de gracia pa mi pa ti hay arriba y arriba

C F G C F G

hay arriba y arriba por ti seré por ti seré por ti seré.







C F G

Bamba bamba

C F G

bamba bamba

C F G

Bamba bamba

C F G

bamba bamba



Letra subida por: Anónimo

El acorde de Los Lobos - La Bamba de All The Beer Songs Disc Three es una versión de la canción original realizada por colaboradores/usuarios de Coveralia.

¿Has encontrado algún error en esta página? Envíanos tu corrección del acorde