música
Buscador

Acorde de It's So Easy - Guns N' Roses

Letra de It's So Easy

'Intro'



BAJO:

G|------------------------------------------------

D|------------------------------------------------

A|-5/7-7-7-7-7-7-7-7-7--5/7-7-7-7-7-7-7-7-7-7-7-7-

E|------------------------------------------------

[repetir algunas veces más]







//después se suma lo siguiente, al mismo tiempo://



GUITARRA LIDER:

e|----

B|-12-

G|-12-

D|-12-

A|----

E|----

[repetir mucho y rapido]



GUITARRA SEGUNDA

e|---

B|---

G|-8-

D|-8-

A|-6-

E|---

[repetir mucho y rapido]



//la Guitarra segunda y el bajo siguen con lo mismo, mientras que la guitarra lider hace esto, como un quiebre://

GYUITARRA LIDER

e|---------------------------------------------------------------------------|

B|-----12----------------------------------------------------------------------|

G|-12---------12---------------------------------------------------------------|

D|----------------12...------------8-------5--------2---------------------------------------|

A|---------------------------------8-------5--------2----------------------------------|

E|---------------------------------6...----3....----0...----------------------------------|





___________________________________________________

'VERSOS':



'I see your sister in her Sunday dresa

She's out to please

She pouts her best

She's out to take

No need to try-

She's ready to make'



GUITARRA LIDER:

e|---------------------------------------------------------------------------|

B|---------------------------------------------------------------------------|

G|-3-3--2-2--0--------------------------------------------------------------------|

D|-3-3--2-2--0--------------------------------------------------------------------|

A|---------------2-2-0-2---------------------------------------------------------|

E|---------------0-0-0-0-------------------------------------------------------|



GUITARRA SEGUNDA:

e|---------------------------------------------------------------------------|

B|---------------------------------------------------------------------------|

G|---------------------------------------------------------------------------|

D|-8----5----2-2-2-2-2-2----------------------------------------------------------|

A|-8----5----2-2-2-2-2-2-------------------------------------------------------------|

E|-6----3----0-0-0-0-0-0-------------------------------------------------------------|



BAJO:

G|---------------------------------------------------------------------------|

D|---------------------------------------------------------------------------|

A|---------------------7------------------------------------------------------|

E|-6----3----0-0-0-0-0--------------------------------------------------------------|







________________________________________________________-

'ESTRIBILLOS:'



'It's so easy, easy

When everybody's tryin' to please me, baby

It's so easy, easy

When everybody's tryin' to please me'



GUTIARRA LIDER:

e|5-5-3-5-6-5--3-0-0-0-0-

B|5-5-3-5-6-5--3-0-0-0-0-

G|-----------------------

D|-----------------------

A|-----------------------

E|-----------------------



GUITARRA SEGUNDA:

e|------------------------

B|------------------------

G|------------------------

D|-7-7--5-5---2-2-2-2-2-0-

A|-7-7--5-5---2-2-2-2-2-0-

E|-5-5--3-3---0-0-0-0-0-0-



BAJO:

G|------------------------

D|------------------------

A|----------------------7-

E|-5-5--3-3---0-0-0-0-0---



___________________________________________________

'VERSOS':



'Cars are crashin' every night

I drink n' drive

everything's in sight

I make the fire

But I miss the firefight

I hit the bull's eye every night'



GUITARRA LIDER:

e|---------------------------------------------------------------------------|

B|---------------------------------------------------------------------------|

G|-3-3--2-2--0--------------------------------------------------------------------|

D|-3-3--2-2--0--------------------------------------------------------------------|

A|---------------2-2-0-2---------------------------------------------------------|

E|---------------0-0-0-0-------------------------------------------------------|



GUITARRA SEGUNDA:

e|---------------------------------------------------------------------------|

B|---------------------------------------------------------------------------|

G|---------------------------------------------------------------------------|

D|-8----5----2-2-2-2-2-2----------------------------------------------------------|

A|-8----5----2-2-2-2-2-2-------------------------------------------------------------|

E|-6----3----0-0-0-0-0-0-------------------------------------------------------------|



BAJO:

G|---------------------------------------------------------------------------|

D|---------------------------------------------------------------------------|

A|---------------------7------------------------------------------------------|

E|-6----3----0-0-0-0-0--------------------------------------------------------------|



________________________________________________________-

'ESTRIBILLOS:'



'It's so easy, easy

When everybody's tryin' to

please me, baby

Yeah it's so easy, easy

When everybody's tryin' to please me'



GUTIARRA LIDER:

e|5-5-3-5-6-5--3-0-0-0-0-

B|5-5-3-5-6-5--3-0-0-0-0-

G|-----------------------

D|-----------------------

A|-----------------------

E|-----------------------



GUITARRA SEGUNDA:

e|------------------------

B|------------------------

G|------------------------

D|-7-7--5-5---2-2-2-2-2-0-

A|-7-7--5-5---2-2-2-2-2-0-

E|-5-5--3-3---0-0-0-0-0-0-



BAJO:

G|------------------------

D|------------------------

A|----------------------7-

E|-5-5--3-3---0-0-0-0-0---





______________________________________________________-

'PUENTE (o parte calmada)':



'So easy

But nothin' seems to please me

It all fits so right

When I fade into the night'



GUITARRA LIDER:

e|---------------------------------------------------------------------------|

B|---------------------------------------------------------------------------|

G|-------------------4------2--------------------------------------------------|

D|-----0------5----4------2------------------------------------------------------|

A|---0------5----2------0--------------------------------------------------------|

E|-2------3--------------------------------------------------------------------|



//repite una vez mas, y en ala segunda vez qe repite se le suma Duff y Izzy://



GUITARRA SEGUNDA:

e|---------------------------------------------------------------------------|

B|---------------------------------------------------------------------------|

G|--------------4-4-4-4-2-2-2-2----------------------------------------------------|

D|-4-4-4-5-5-5--4-4-4-4-2-2-2-2------------------------------------------------------|

A|-4-4-4-5-5-5--2-2-2-2-0-0-0-0------------------------------------------------------|

E|-2-2-2-3-3-3------------------------------------------------------------------|



BAJO:

G|---------------------------------------------------------------------------|

D|---------------------------------------------------------------------------|

A|--------------2------0-------------------------------------------------------|

E|-2-----3---------------------------------------------------------------------|







//Quiebre raro y corto://



'See me hit you-You fall down!!!'



GUITARRA LÍDER:

e|-0-10-12---------------------------------------------------------------------|

B|---------------------------------------------------------------------------|

G|---------------------------------------------------------------------------|

D|---------------------------------------------------------------------------|

A|---------------------------------------------------------------------------|

E|---------------------------------------------------------------------------|

[repite constantemente y rápido]



GUITARRA SEGUNDA:

e|---------------------------------------------------------------------------|

B|---------------------------------------------------------------------------|

G|---------------------------------------------------------------------------|

D|---------------------------------------------------------------------------|

A|-0-5-7-----------------------------------------------------------------------|

E|-0-0-0------------------------------------------------------------------------|

[repite constantemente y rápido]







//Parte del puente fluída://



'I see you standin' there

You think you're so cool

Why don't you just...

((Fuck off!!!))'





GUITARRA LIDER:

e|---------------------------------------------------------------------------|

B|---------------------------------------------------------------------------|

G|-7-7--6-----------------------------------------------------------------------|

D|-7-7--6-5-4-2--------------------------------------------------------------------|

A|-5-5--4-5-4-2--------------------------------------------------------------------|

E|--------3-2-0-----------------------------------------------------------------|



GUITARRA SEGUNDA:

e|---------------------------------------------------------------------------|

B|---------------------------------------------------------------------------|

G|------------------------------------------------------------------|

D|-7-7--6-----------------------------------------------------------------------|

A|-5-5--4-5-4-2--------------------------------------------------------------------|

E|--------3-2-0-----------------------------------------------------------------|



BAJO:

G|---------------------------------------------------------------------------|

D|---------------------------------------------------------------------------|

A|-5-5-------------------------------------------------------------------------|

E|------9/0 (deslizar o 'slide' desde 9 a 0)-------------------------------------------------------------------|





_____________________________________________________________________-



'Solo:'



GUITARRA LIDER (Slash):

|------------------------------------------12-------|

|-17hb-----17~~-(17)-17fb-(17)s--15fb-(15)----15p12-|

https://www.coveralia.com/acordes/it-s-so-easy-guns-n--roses.php

|--------------------17hb-(17)s---------------------|

|---------------------------------------------------|

|---------------------------------------------------|

|---------------------------------------------------|



|---------------------------------------------------|

|--------------12-----------------------------------|

|-14fbr--12-14---12-(12)~~------------------12--14--|

|----------------------------14--14----14-----------|

|---------------------------------------------------|

|---------------------------------------------------|



|---------------------------------------------------|

|-12---12---12-------12---------12------------15~~--|

|----15---15---15-14-----15-14------12hb------------|

|-----------------------------------------14--------|

|---------------------------------------------------|

|---------------------------------------------------|



|--------------------------------------------------------|

|-14hb-(14)r--14hbr-14hbr--------------------15fb~~-(15)s|

|--------------------------12----------------------------|

|-----------------------------14-14--(14)-14-------------|

|--------------------------------------------------------|

|--------------------------------------------------------|



GUITARRA SEGUNDA (Acompañamiento):

e|---------------------------------------------------------------------------|

B|---------------------------------------------------------------------------|

G|---------------------------------------------------------------------------|

D|-8----5----2-2-2-2-2-2----------------------------------------------------------|

A|-8----5----2-2-2-2-2-2-------------------------------------------------------------|

E|-6----3----0-0-0-0-0-0-------------------------------------------------------------|

//repetir hasta que el solo termine//





BAJO:(Acompañamiento):

G|---------------------------------------------------------------------------|

D|---------------------------------------------------------------------------|

A|---------------------7------------------------------------------------------|

E|-6----3----0-0-0-0-0--------------------------------------------------------------|

//repetir hasta que el solo termine//



___________________________________________________________

'VERSOS':



'Ya get nothin' for nothin'

If that's what you do

Turn around bitch I got a use for you

Besides you ain't got nothin' better to do

And I'm bored'



GUITARRA LIDER:

e|-------------------0-0------------------------------------------------------|

B|-------------------0-0------------------------------------------------------|

G|-3-3--2-2--0--------------------------------------------------------------------|

D|-3-3--2-2--0--------------------------------------------------------------------|

A|---------------2-2-----------------------------------------------------------|

E|---------------0-0---------------------------------------------------------|



GUITARRA SEGUNDA:

e|---------------------------------------------------------------------------|

B|---------------------------------------------------------------------------|

G|---------------------------------------------------------------------------|

D|-8----5----2-2-2-2-2-2----------------------------------------------------------|

A|-8----5----2-2-2-2-2-2-------------------------------------------------------------|

E|-6----3----0-0-0-0-0-0-------------------------------------------------------------|



BAJO:

G|---------------------------------------------------------------------------|

D|---------------------------------------------------------------------------|

A|---------------------7------------------------------------------------------|

E|-6----3----0-0-0-0-0-----------------------------------------



________________________________________________________-

'ESTRIBILLOS:'



'It's so easy, easy

When everybody's tryin' to

please me, baby

It's so easy, easy

When everybody's tryin' to please me'



GUTIARRA LIDER:

e|5-5-3-5-6-5--3-0-0-0-0-

B|5-5-3-5-6-5--3-0-0-0-0-

G|-----------------------

D|-----------------------

A|-----------------------

E|-----------------------



GUITARRA SEGUNDA:

e|------------------------

B|------------------------

G|------------------------

D|-7-7--5-5---2-2-2-2-2-0-

A|-7-7--5-5---2-2-2-2-2-0-

E|-5-5--3-3---0-0-0-0-0-0-



BAJO:

G|------------------------

D|------------------------

A|----------------------7-

E|-5-5--3-3---0-0-0-0-0---





______________________________________________________-

'PUENTE (o parte calmada)':



'So easy

But nothin' seems to please me

It all fits so right

When I fade into the night



So come with me

Don't ask me where cause I don't know

I'll try to please you

I ain't got no money

But it goes to show!!!'



GUITARRA LIDER:

e|---------------------------------------------------------------------------|

B|---------------------------------------------------------------------------|

G|-------------------4------2--------------------------------------------------|

D|-----0------5----4------2------------------------------------------------------|

A|---0------5----2------0--------------------------------------------------------|

E|-2------3--------------------------------------------------------------------|



//repite 2 veces mas, y en ala segunda vez qe repite se le suma Duff y Izzy://



GUITARRA SEGUNDA:

e|---------------------------------------------------------------------------|

B|---------------------------------------------------------------------------|

G|--------------4-4-4-4-2-2-2-2----------------------------------------------------|

D|-4-4-4-5-5-5--4-4-4-4-2-2-2-2------------------------------------------------------|

A|-4-4-4-5-5-5--2-2-2-2-0-0-0-0------------------------------------------------------|

E|-2-2-2-3-3-3------------------------------------------------------------------|



BAJO:

G|---------------------------------------------------------------------------|

D|---------------------------------------------------------------------------|

A|--------------2------0-------------------------------------------------------|

E|-2-----3---------------------------------------------------------------------|









//Parte del puente fluída o Final de la cancion://



'It's so easy

It's so fucking easy

It's so easy

It's so fucking easy

etc...'



GUITARRA LIDER:

|------15--12-------10----(10)~~~~(10)s----------0--|

|----x------------x-10fb--(10)----(10)s-2fb--(2)----|

|---x------------x----------------------------------|

|--x------------x-----------------------------------|

|---------------------------------------------------|

|---------------------------------------------------|



|---------------------------------------------------|

|--3p0----------------------------------------------|

|------2fbr(2)p0------------------------------------|

|----------------2--2~~(2)~~-2--5fbr----------------|

|---------------------------------------------------|

|-------------------------------------5-(5)slowfb---|



|---------------------------------------------------|

|---------------------------------------------------|

|---------------------------------------------------|

|---------------------------5hb---------------------|

|-----------------5hb--7--5-------7-7-(7)-7-7---5hb-|

|-3-(3)-5fb--3-0------------------------------7-----|



|---------------------------------------------------|

|---------------------------------------------------|

|------------------------7--9p7---7-(7)-9--9-----7hb|

|----7s8s7p5-7p5-----7s5--------9-------------9-----|

|-7--------------7-5--------------------------------|

|---------------------------------------------------|

pm ..... ......



|---------------------------------------------------|

|--------8hb----------12-15-------------------------|

|-9---9----------14fb-------14fbr-12--14fb---15--12-|

|---------------------------------------------------|

|---------------------------------------------------|

|---------------------------------------------------|



|--------------12-----------------------------------|

|-----------------15--14h15p14p12---14---12---------|

|-14fb(14)rp12------------------------------14p12---|

|---------------------------------------------------|

|---------------------------------------------------|

|---------------------------------------------------|



|---------------------------------------------------|

|---------------------------------------------------|

|-14-(14)fb--14fb----14--13h14p13------12-----------|

|-----------------14---------------14---------------|

|---------------------------------------------------|

|---------------------------------------------------|

p.m ..



|---------------------------------------------------|

|-14hb(14)rp12----14--------------------------------|

|--------------14----12-----------------------------|

|-----------------------14-14s12-12s8-7-7s5--(5)----|

|---------------------------------------------------|

|---------------------------------------------------|



|---------------------------------------------------|

|---------------------------------------------------|

|---------------------------------------------------|

|--------------8--7--5------------------------------|

|-----------------------7---------------------------|

|--3s(17)s-----------------6--5--3hb--0----(0)------|



|---------------------------------------------------|

|---------------------------------------------------|

|-9-9----7-----9------------------------------------|

|-9-9----7-----9-----8--7--5------------------------|

|-7-7----5-----7--------------7---------------------|

|-----7-----0----0---------------6--5--3hb--0----(0)|

p.m .. .. ..



|---------------------------------------------------|

|---------------------------------------------------|

|-9-9----7-----9------------------------------------|

|-9-9----7-----9-----8--7--5------------------------|

|-7-7----5-----7--------------7---------------------|

|-----7-----0----0---------------6--5--3hb--0----(0)|

p.m .. .. ..

|---------------------------------------------------|

|---------------------------------------------------|

|-9-9----7-----9------------------------------------|

|-9-9----7-----9-----8--7--5----------------2----(2)|

|-7-7----5-----7--------------7-------------2----(2)|

|-----7-----0----0---------------6--5--3hb--0----(0)|

p.m .. .. ..



//fb = estiramiento completo

hb = estiramiento medio

fbr = estiramiento completo, y luego soltar

r = soltar//



GUITARRA SEGUNDA:

e|---------------------------------------------------------------------------|

B|---------------------------------------------------------------------------|

G|------------------------------------------------------------------|

D|-7-7--6-----------------------------------------------------------------------|

A|-5-5--4-5-4-2--------------------------------------------------------------------|

E|--------3-2-0-----------------------------------------------------------------|

//Mientras acompaña el solo final, creo qe son 8 veces//



BAJO:

G|---------------------------------------------------------------------------|

D|---------------------------------------------------------------------------|

A|-5-5-------------------------------------------------------------------------|

E|------9/0 (deslizar o 'slide' desde 9 a 0)-------------------------------------------------------------------|

//Mientras acompaña el solo final, creo qe son 8 veces//

Letra subida por: Anónimo

El acorde de It's So Easy de Guns N' Roses es una versión de la canción original realizada por colaboradores/usuarios de Coveralia.

¿Has encontrado algún error en esta página? Envíanos tu corrección del acorde