música
Buscador

Acorde de Hold Back The River (Live At The Hotel Cafe) - James Bay

Letra de Hold Back The River (Live At The Hotel Cafe)

Capo 3



Intro:

e|------------------------------------------------------------------------8~~--|

B|-6----8--10----13--15-----13--10----13--15-----13--10---10--10-8-------------|

G|-------------------------------------------------------------------10--9-----|

D|-----------------------------------------------------------------------------|

A|-5----7--8-----12--13-----12--8-----12--13-----12--8---8--8------------------|

E|---------------------------------------------------------------8---8---8-----|



VERSE: (Just play the intro riff here)

Bm7 D G D

Tried to keep you close to me,

G D A

But life got in between

Bm7 D G D

Tried to square not being there

G D A

But think that I should have been





CHORUS:

G

Hold back the river, let me look in your eyes

G

Hold back the river so I

D

Can stop for a minute and see where you hide

D

Hold back the river, hold back



pre verse:

e|--------------|

B|-6----8--10---|

G|--------------|

D|--------------|

A|-5----7--8----|

E|--------------|



Verse: (Just play the intro riff)

Bm7 D G D

Once upon a different life

G D A

We rode our bikes into the sky

Bm7 D G D

But now we crawl against the tide

G D A

Those distant days are flashing by





CHORUS:

G

Hold back the river, let me look in your eyes



Hold back the river so I

D

Can stop for a minute and be by your side

A

Hold back the river, hold back

G

Hold back the river, let me look in your eyes

https://www.coveralia.com/acordes/hold-back-the-river--live-at-the-hotel-cafe--james-bay.php


Hold back the river so I

D

Can stop for a minute and see where you hide

A

Hold back the river, hold back



Bm7 D G D

Ooh oho, oho, oho,

G D A

Oho, oho, ohooh?





BRIDGE:

D G

Lonely water, lonely water won't you let us wander

Em

Let us hold each other

D G

Lonely water, lonely water won't you let us wander

Em

Let us hold each other



CHORUS:

G

Hold back the river, let me look in your eyes



Hold back the river so I

D

Can stop for a minute and be by your side

A

Hold back the river, hold back

G

Hold back the river, let me look in your eyes



Hold back the river so I

D

Can stop for a minute and be by your side

A

Hold back the river, ooh





BRIDGE:

D G

Lonely water, lonely water won't you let us wander

Em

Let us hold each other

D G

Lonely water, lonely water won't you let us wander

Em

Let us hold each other



Outro:

e|-----------------------------------------------------------------------|

B|-6----8--10----13--15-----13--10----13--15-----13--10---10--10-8-------|

G|-----------------------------------------------------------------------|

D|-----------------------------------------------------------------------|

A|-5----7--8-----12--13-----12--8-----12--13-----12--8---8--8------------|

E|---------------------------------------------------------------8-------|

Letra subida por: Anónimo

Discos en los que aparece este acorde: Hold Back The River (Cd Single)

El acorde de Hold Back The River (Live At The Hotel Cafe) de James Bay es una versión de la canción original realizada por colaboradores/usuarios de Coveralia.

¿Has encontrado algún error en esta página? Envíanos tu corrección del acorde