Quantcast
música
Buscador

Acorde de Hello Cold World - Paramore

Letra de Hello Cold World

Intro 2x: 

e|-------6----------------------6----------------------|

B|----8------8--6-8-6-8------8------8--6-4-3-4---------|

G|-8----------------------8----------------------------|

D|-----------------------------------------------------|

A|-----------------------------------------------------|

E|-----------------------------------------------------|







Eb

I feel happy I feel sad I feel like running through the walls,

Eb

I'm over joyed I'm undecided, I don't know who I am,

C Bb

And maybe I'm not perfect, atleast I'm workin on it,

Eb

22 was like the worst idea that I've ever had

it's too much pain, it's too much freedom

What should I do with this

C Ab

it's not the way you plan it it's how you make it happen,

Eb Ab Eb Bb

yeah it's how you make it happen





Eb Bb Ab

It's such a cold cold world and I can't get out

Cm Bb Ab

so I'll just make the best of everything I've ever had

Cm Bb

such a cold cold world

Eb Ab

and it's got me down,

Cm Bb Ab

But i'll get right back as long as it spins around

hello cold world



ocultar esta pestaña

e|-------6----------------------6----------------------|

e|----8------8--6-8-6-8------8------8--6-4-3-4---------|

G|-8----------------------8----------------------------|

D|-----------------------------------------------------|

A|-----------------------------------------------------|

E|-----------------------------------------------------|







Eb

Girls and boys keep lining up to see if they can measure up

They look good and they feel wow but it will never be enough,

Bb Ab

You say you're really hurtin, atleast you're feelin somethin,

Eb

we can hope and we can pray that everything will work out fine,

you can't just stay down on your knees,

the revolution is outside,

Bb Ab

you wanna make a difference, get out and go and get it

Cm Ab Eb Bb

woah get out and go and get it





Eb Bb Ab

It's such a cold cold world and I can't get out

Cm Bb Ab

so I'll just make the best of everything I've ever had

Cm Bb

such a cold cold world

https://www.coveralia.com/acordes/hello-cold-world-paramore.php

Eb Ab

and it's got me down,

Cm Bb Ab

But i'll get right back as long as it spins around

Eb

hello cold world



Ab

oh oh woah woah ohhh

Cm Bb

ohhh don't need my eyes open,

Ab

oh oh woah woah ohh

Cm Bb

ohhh I just wanna feel something



ocultar esta pestaña

e|-------6---8-11-10------8-----6------6---------------|

B|----8---------------11-----8-----8-------------------|

G|-8---------------------------------------------------|

D|-----------------------------------------------------|

A|-----------------------------------------------------|

E|-----------------------------------------------------|



e|-------6---8-11-10------8------6---------------------|

B|----8---------------11-----8-----8-------------------|

G|-8----------------------------------8----------------|

D|-----------------------------------------------------|

A|-----------------------------------------------------|

E|-----------------------------------------------------|



e|-------6---8-11-10------8-----6------6---------------|

B|----8---------------11-----8-----8-------------------|

G|-8---------------------------------------------------|

D|-----------------------------------------------------|

A|-----------------------------------------------------|

E|-----------------------------------------------------|



e|------------------------8-11-------------------------|

B|-----------------8-9-11------------------------------|

G|5555 7777--8h10--------------------------------------|

D|-----------------------------------------------------|

A|-----------------------------------------------------|

E|-----------------------------------------------------|









Eb Bb Ab

It's such a cold cold world and I can't get out

Cm Bb Ab

so I'll just make the best of everything I've ever had

Cm Bb

such a cold cold world

Eb Ab

and it's got me down,

Cm Bb Ab

But i'll get right back as long as it spins around

hello cold world



Eb Cm

oh oh woah woah ohh

Bb Ab

oh hello cold world

Eb Cm

oh oh woah woah ohh

Bb Ab

oh hell cold world

Letra subida por: Anónimo

Discos en los que aparece este acorde: Singles Club Ep , Hello Cold World (Cd Single)

El acorde de Hello Cold World de Paramore es una versión de la canción original realizada por colaboradores/usuarios de Coveralia.

¿Has encontrado algún error en esta página? Envíanos tu corrección del acorde