música
Buscador

Acorde de Heading Out To The Highway - Judas Priest

Letra de Heading Out To The Highway

{intro riff}(4x) 

e|---------------------------------------|

B|---------------------------------------|

G|---------------------5--4-----4--5--7--|(part1)

D|------2--------------5--5-----5--5--7--|

A|-0--0--0--0--0--0--0--------0----------|

E|---------------------------------------|





e|----------------------------------|

B|----------------------------------|

G|---------------------5--4--5--0---|(part2)

D|------2--------------5--5--5--0---|

A|-0--0--0--0--0--0--0--------------|

E|----------------------------------|



A C

Well I've said it before, and I'll say it again

G A

You get nothin' for nothin', expect it when

F G

You're back seat drivin' and your hands ain't on

A

the wheel

A C

It's easy to go along with the crowd

G A

And find later on that your say ain't allowed

F G A

Oh that's the way to find what you've been missin'



{chorus}:



A D A A

So I'm heading out to the highway

D A E

I got nothin' to lose at all

D A A

I'm goin' to do it my way

D A E

Take a chance before I fall

D A A C A

https://www.coveralia.com/acordes/heading-out-to-the-highway-judas-priest.php

A chance before I fall



{intro riff}(1x)



You can hang in a left or hang in a right

The choice it is yours to do as you might

The road is open wide to place your biddin'

Now, wherever you turn, wherever you go

If you get it wrong, at least you can know

There's miles and miles to put it back together



{chorus}



{bridge}(4x)

e|------------------|

B|------------------|

G|--------7------2--|

D|-4------7------2--|

A|-2----------------|

E|------------------|



On the highway...

On the highway...



{lead break}

Makin' a curve or takin' the strain

On the decline, or out on the wain

Oh everybody breaks down sooner or later

We'll put it to rights, we'll square up and mend

Back on your feet to take the next bend

You weather every storm that's comin' at cha



And I'm heading out to the highway

I got nothin' to lose at all

I got nothin' to lose at all...



{ending}: just the part1 of theintro riff played slowly.







Letra subida por: Anónimo

El acorde de Heading Out To The Highway de Judas Priest es una versión de la canción original realizada por colaboradores/usuarios de Coveralia.

¿Has encontrado algún error en esta página? Envíanos tu corrección del acorde