música
Buscador

Acorde de Goodbye (Alex Schulz Remix) - Feder

Letra de Goodbye (Alex Schulz Remix)

Tuning: standard

Capo: NO capo



Chords used:

N.C.: no chords

G#5: 4.6.6.x.x.x

C#5: x.4.6.6.x.x

D#5: x.6.8.8.x.x



Intro:

N.C.

Is someone listening?

G#5

OK



Verse:

G#5 (stop)

Let me tell you this story

N.C.

Of that guy

G#5

First you loved,

Then you promised (stop)

Two of us losing control, crazy night, intense sex



Verse:

G#5

Now, living, my own life

Got you out of my (mind)

Have, me wasting, too much time

Gonna leave you far behind



Chorus:

Riff1 Riff1 Riff1 Riff1

Riff1 Riff1 Riff1 Riff1

Riff2 Riff2 Riff3 Riff3

Riff1 Riff1 Riff1 Riff1

Riff2 Riff2 Riff3 Riff3



Verse:

G#5

Then, you ran away

Are you thinking of me?

When you fuck her?

Doubt you know you were supposed to love me

Till the day (you)

Almost

Kill me



Verse:

G#5

Now, living, my own life

Got you out of my (mind)

Have, me wasting, too much time

Gonna leave you far behind



Chorus:

Riff1 Riff1 Riff1 Riff1

Riff1 Riff1 Riff1 Riff1

https://www.coveralia.com/acordes/goodbye--alex-schulz-remix--feder.php

Riff2 Riff2 Riff3 Riff3

Riff1 Riff1 Riff1 Riff1

Riff2 Riff2 Riff3 Riff3



Bridge:

G#5 C#5 D#5

Now, living, my own life

G#5

Got you out of my (mind)

C#5 D#5

Have, me wasting, too much time

G#5

Gonna leave you far behind

C#5 D#5

Now, living, my own life

G#5

Got you out of my (mind)

C#5 D#5

Have, me wasting, too much time

G#5

Gonna leave you far behind



Chorus:

Riff1 Riff1 Riff1 Riff1

Riff1 Riff1 Riff1 Riff1

Riff2 Riff2 Riff3 Riff3

Riff1 Riff1 Riff1 Riff1

Riff2 Riff2 Riff3 Riff3



End:

G#5





Note:

Riff1

e|---------------------------|

B|-------9---12---11---------|

G|--12-----------------------|

D|---------------------------|

A|---------------------------|

E|---------------------------|



Riff2

e|---------------------------|

B|-------9---12---11---------|

G|---9-----------------------|

D|---------------------------|

A|---------------------------|

E|---------------------------|



Riff3

e|---------------------------|

B|-------9---12---11---------|

G|---8-----------------------|

D|---------------------------|

A|---------------------------|

E|---------------------------|



Letra subida por: Anónimo

Discos en los que aparece este acorde: Goodbye (Featuring Lyse) (Cd Single)

El acorde de Goodbye (Alex Schulz Remix) de Feder es una versión de la canción original realizada por colaboradores/usuarios de Coveralia.

¿Has encontrado algún error en esta página? Envíanos tu corrección del acorde