música
Buscador

Acorde de Going Mobile - The Who

Letra de Going Mobile

{intro} 

E x2 F#m

||-------------------||-7--7--7--7--7---7--7--|-7--7--7--7--------|

||--9-9-----9--------||-10-10-9--9--7---9--7--|-10-10-9--7--------|

||.-9-9-----9-------.||-11-11-11-11-11--11-11-|-11-11-11-11-------|

||.-9-9-----9-------.||-11-11-11-11-11--11-11-|-11-11-11-11-------|

||--7-7-----7-7------||-----------------------|-------------7-----|

||------7-9T----7-9T-||-----------------------|---------------7-9-|



{intro continued; verse pattern}

E x2 F#m D

||-------------------||-7--7--7--7--7------7-|-7--7--7--7--------|

||--9-9-----9--------||-10-10-9--9--7---9--7-|-10-10-9--7--------|

||.-9-9-----9-------.||-11-11-11-11-11--11-7-|-7--7--7--7--------|

||.-9-9-----9-------.||-11-11-11-11-11--11-7-|-7--7--7--7--------|

||--7-7-----7-7------||----------------------|-------------7-----|

||------7-9T----7-9T-||----------------------|T10-10-10-10---7-9-|



E F#m D

I'm going home, and when I wanna go home, I'm goin' moblie

E F#m D

Well, I'm gonna find a home on wheels, see how it feels, goin' mobile

E

Keep me movin'



I can pull up by the curb, I can make it on the road, goin' mobile

I can stop in any street invitin' people that we meet, goin' mobile

Keep me movin' hmm...



{bridge}



G D/F# Em Em7/D

Out in the woods or in the city

C Cmaj7 D

It's all the same to me, when I'm drivin' free

G/D D E...

The world's my home, when I'm mobile

https://www.coveralia.com/acordes/going-mobile-the-who.php

D A

Wee whoo, beep beep



Play the tape machine, make the toast and tea when I'm mobile

Well, I can lay in bed with only highway ahead when I'm mobile

Keep me movin'



E5...

Keep me movin'

Over fifty

Keep me movin'

Just a hippie gypsy

D A E5 D A E5....

C'mon move now movin'....



||: D A A | D A A :|| E5...





Keep me movin' movin' movin' yeah...

Mobile, mobile....





G D/F# Em

I don't care about pollution

Em7/D C

I'm an air-conditioned gypsy

Cmaj7 D

That's my solution



Watch the police and the taxman miss me

E E5....

I'm mobile!



{outro} * * *

| E5 | D A | F#m | D | Bm7 | E5 |E

Letra subida por: Anónimo

Discos en los que aparece este acorde: Who's Next (1995) , Who's Next (Deluxe Edition) , Who's Next

El acorde de Going Mobile de The Who es una versión de la canción original realizada por colaboradores/usuarios de Coveralia.

¿Has encontrado algún error en esta página? Envíanos tu corrección del acorde