Quantcast
música
Buscador

Acorde de Get It Over - Avril Lavigne

Letra de Get It Over

e/|----------------------------------------------|

B||---------------------------------------3--2---||

G||--------------------------------4--2---2--2---||

D||--4--5--4--2----4--5--4--2--0---0--0---0--0---||

A||--2--2--2--2----2--2--2--2--2---2--2---2--2---||

E|----------------------------------------------|/



Bm G D

Slippin down a slide I did enjoy the ride

A Bm

Don't know what to decide, you lie to me

G D

You look me in the eye, it took me by surprise

A Bm G

Now are you gratified, you cry to me

D A

La la la la la la

Bm G D A

Don't turn around, I'm sick and I'm tired of your face

Bm G D A

Don't make this worse, You've already gone and got me mad

Em

It's too bad I'm not sad, it's cast n' over

G (----No chords----)

It's just one of those things, you'll have to get over it



Bm A

e/|----17-----17-------17-----17-----17-----17-----17-----17-------|

B||------15~~~--15~~~----15~~~--15~~~--15~~~--15~~~--15~~~--15~~~--||

G||--16--------------16--------------------------------------------||

D||----------------------------------------------------------------||

A||----------------------------------------------------------------||

E|----------------------------------------------------------------|/

Bm G D

When I was feelin down, you'd start to hang around

A Bm

And then I found your hands, all over me

G D

And that was out of bounds, you filthy rotten hound

A Bm G

It's badder than it sounds, believe me

D A

La la la la la la

https://www.coveralia.com/acordes/get-it-over-avril-lavigne.php

Bm G D A

Don't turn around, I'm sick and I'm tired of your face

Bm G D A

Don't make this worse, You've already gone and got me mad

Em

It's too bad I'm not sad, it's cast n' over

G (----No chords----)

It's just one of those things, you'll have to get over it

G Bm

Hey yeah! You gotta get over

G Bm

Hey yeah! You gotta get over it

Em

Too bad I'm not sad, it's cast n' over

G Bm

Just one of those things, you'll have to get over it!

Oh...

Bm A

e/|---------------------------17--10--10-------10------9----10--|

B||--15--15-----15-----15---------------10---10-----10----10----||

G||--------16-----16-----16---------11-----11-----11-----9------||

D||----16-----16-----16-----16----------------------------------||

A||-------------------------------------------------------------||

E|-------------------------------------------------------------|/



Bm G D A

Don't turn around, I'm sick and I'm tired of your face

Bm G D A

Don't make this worse, You've already gone and got me mad

Bm G D A

Don't turn around, I'm sick and I'm tired of your face

Bm G D A

Don't make this worse, You've already gone and got me mad

Em

Too bad I'm not sad, it's cast n' over

G Bm

Just one of those things, you'll have to get over it

A Bm

You'll have to get over it







Letra subida por: Anónimo

Discos en los que aparece este acorde: Sk8er Girl (Live)

El acorde de Get It Over de Avril Lavigne es una versión de la canción original realizada por colaboradores/usuarios de Coveralia.

¿Has encontrado algún error en esta página? Envíanos tu corrección del acorde