música
Buscador

Acorde de Freak Out - Avril Lavigne

Letra de Freak Out

INTRO:



E|-----------------------------------------------------------------------------------

B|-----------------------------------------------------------------------------------

G|---8--8---8=>10-8-------------8=>10-8-----------8=>10-8------------8=>10-12-10-8---

D|---8--8---------------3--3---------------6--6---------------6--6------------------- (x2)

A|---6--6---------------3--3---------------6--6---------------6--6-------------------

E|----------------------1--1---------------4--4---------------4--4-------------------





D# F G# G#

Try to tell me what I shouldn't do

D# F G# G#

You shoud know by now I won't listen you

D# F G# G#

Walk around with my hands up in the air

D# F G# G#

Cause I don't care





F G G# Bb

Cause I'm allright I'm fine, just freak out, let it go





D# A#

I'm gonna live my life

C D#

I can't ever run and hide

G#

I won't compromise

A#

Cause I'll never know

D# A#

I'm gonna close my eyes

C D#

I can watch the time go by

G#

I won't keep it inside

A# A#

Freak out let it go





Just freak out let it go

E|-----------------------------------------------------------------------------------

B|-----------------------------------------------------------------------------------

G|---8--8---8=>10-8-------------8=>10-8-----------8=>10-8------------8=>10-12-10-8---

D|---8--8---------------3--3---------------6--6---------------6--6------------------- (x2)

A|---6--6---------------3--3---------------6--6---------------6--6-------------------

E|----------------------1--1---------------4--4---------------4--4-------------------







D# F G# G#

You don't always have to do

G# G#

Everything right

D# F G# G#

Stand up for yourself

G# G#

And put up a fight

D# F G# G# G# G#

Walk around with your hands up in the air

https://www.coveralia.com/acordes/freak-out-avril-lavigne.php

D# F G# G# G# G#

Like you don't care



F G G# Bb

Cause I'm allright I'm fine, just freak out, let it go





D# A#

I'm gonna live my life

C D#

I can't ever run and hide

G#

I won't compromise

A#

Cause I'll never know

D# A#

I'm gonna close my eyes

C D#

I can watch the time go by

G#

I won't keep it inside

A# A#

Freak out let it go



(sem distorcao)

C A# G#

On my own

C A#

Let it go

(com distorção)

F G G#

Yeah yeah yeah yeah yeah yeah





(sem distorcao)

D# A#

Just let me live my life

-- (com distorção)

C D#

I can't ever run and hide

G#

I won't compromise

A#

Cause I'll never know

D# A#

I'm gonna close my eyes

C D#

I can watch the time go by

G#

I won't keep it inside

A# A#

Freak out let it go



Just freak out let it go

E|-----------------------------------------------------------------------------------

B|-----------------------------------------------------------------------------------

G|---8--8---8=>10-8-------------8=>10-8-----------8=>10-8------------8=>10-12-10-8---

D|---8--8---------------3--3---------------6--6---------------6--6------------------- (x2)Acaba em D#

A|---6--6---------------3--3---------------6--6---------------6--6-------------------

E|----------------------1--1---------------4--4---------------4--4-------------------

Letra subida por: Anónimo

El acorde de Freak Out de Avril Lavigne es una versión de la canción original realizada por colaboradores/usuarios de Coveralia.

¿Has encontrado algún error en esta página? Envíanos tu corrección del acorde