música
Buscador

Acorde de Feel So Close - Calvin Harris

Letra de Feel So Close



Tuning: Standard



Chords for the Verse are:



Am Em G C



You can play these barred if you like.



Chorus is slightly more complex as the bass takes effect as follows.



Am B Em F# G D C C B A Em G



Main Bass Riff

e|-------------------------------------------------------------------|

B|-------------------------------------------------------------------|

G|-------------------------------------------------------------------|

D|-------------------------------------------------------------------|

A|-----------------------------------------5-5-5-5-3-3-3-3---3-2-0---|

E|-5-5-5-5-7-7-7-7-0-0-0-0-2-2-2-2-3-3-3-3-------------------------3-|



You can always play these with barred chords. Listen to the song to gain the tempo and

movement of notes towards the end of the rift.



Finally there is a guitar lead that comes in just before the chorus to and plays

throughout. Its picked at first and then its strummed upwards later at just a fraction

off timing. Plenty of distortion but do not let ring.



Guitar Riff

e|-------------------------------------------------------------------|

B|-------------------------------------------------------------------|

G|---16--16--16--16--16--16--16--16--16--16--16--16--12--12--12--12--|

D|-17--17--17--17--16--16--16--16--14--14--14--14--10--10--10--10----|

A|-------------------------------------------------------------------|

E|-------------------------------------------------------------------|







Am Em G

I feel so close to you right now

https://www.coveralia.com/acordes/feel-so-close-calvin-harris.php

C

It's a force feel



I wear my heart upon my sleeve, like a big deal

Your love bows down, I mean surround me like a waterfall

And there's no stopping us right now

I feel so close to you right now



(Guitar Riff)

(Bass Rift and Guitar Rift Strum)



e|--------------------------------------------------------------------------|

B|--------------------------------------------------------------------------|

G|--16--16--16--16--16--16--16--16--16--16--16--16--12--12--12--12----------|

D|--17--17--17--17--16--16--16--16--14--14--14--14--10--10--10--10----------|

A|--------------------------------------------------------------------------|

E|--------------------------------------------------------------------------|



I feel so close to you right now

It's a force feel

I wear my heart upon my sleeve, like a big deal

Your love bows down, I mean surround me like a waterfall

And there's no stopping us right now

I feel so close to you right now



(Guitar Rift)

(Bass Rift and Guitar Rift Strum)



And there's no stopping us right now



And there's no stopping us right now



And there's no stopping us right now



I feel so close to you right now...







Letra subida por: Anónimo

El acorde de Feel So Close de Calvin Harris es una versión de la canción original realizada por colaboradores/usuarios de Coveralia.

¿Has encontrado algún error en esta página? Envíanos tu corrección del acorde