música
Buscador

Acorde de Faltas Tu - Los Temerarios

Letra de Faltas Tu

Armoniza en Re mayor





e-5--9--9-10--9-7--7-7-7-5-3-2-

B-7-10-10-12-10-8--8-8-8-7-5-3-

G------------------------------

D------------------------------

A------------------------------

E------------------------------



e-10-10--9-7---9--9-7-5--5--9--9-10--9-7--19-17-15-14-

B-12-12-10-8--10-10-8-7--7-10-10-12-10-8--20-19-17-15-

G-----------------------------------------------------

D-----------------------------------------------------

A-----------------------------------------------------

E-----------------------------------------------------





D

Ya nada me parece bello



ni las estrellas, ni el azul

A7

del cielo

G A7

Faltas tu

G A7

Faltas tu



Por Dios te ruego



Perdoname, perdoname

https://www.coveralia.com/acordes/faltas-tu-los-temerarios.php

D

Que sin ti muero.

D7 G

Me faltas tu porque siempre



te añoro y por las noches lloro

A7 D G

Me faltas tu, perdoname

A7 D

y vuelve por favor.

G

Perdoname

A7 D

y vuelve por favor.

D

Es cierto contigo fui malo



Si, esto es cierto pero ya he

A7

pagado

G A7

Faltas tu

G A7

Faltas tu



Olvida el pasado

G A7

Perdoname, perdoname

D

Y vuelve a mi lado.

Letra subida por: Anónimo

El acorde de Faltas Tu de Los Temerarios es una versión de la canción original realizada por colaboradores/usuarios de Coveralia.

¿Has encontrado algún error en esta página? Envíanos tu corrección del acorde