Quantcast
música
Buscador

Acorde de Even in His Youth - Nirvana

Letra de Even in His Youth

Versão 1



Intro: C G G#



C G G#

Even in his youth x3

He was nothing

Kept his body clean x3

Going nowhere

Daddy was ashamed x2

He was something

Digrace the family name x2

The family name, he was something



E C G D E*

He was born for your crew

C G D E

I've got nothing left to prove

C G D E*

If I die before I wake

C G D B

Hope I don't come back asleep



Even in his youth x3

He was nothing

Kept his body clean x3

Going nowhere

Daddy was ashamed x2

He was ashamed, he was nothing

Digrace the family name x2

Family name, going nowhere



Leave this one, for your brew

I've got nothing left to prove

If I die before I wake

Hope I don't come back asleep

Aye-Yeah!



SOLO 8×



https://www.coveralia.com/acordes/even-in-his-youth-nirvana.php

Leave this one, for your brew

I've got nothing left to prove

If I die before I wake

Hope I don't come back again

I'm dying!



Even in his youth x2

Yeah, yeah

Even in his youth x2

Yeah, yeah

Even in his youth

Yeah, yeah

Even in his youth

Yeah, yeah x5



Versão 2

Intro/verso

|-----------------------------|

|-----------------------------| toque isso muitas

|---5x------------------------| vezes

|---5x 5/666------------------|

|---3x 5/666------------------|

|------3/444------------------|



Refrão

|-----------------------------|

|-----------------------------|

|----5x----7x-----------------|

|-2x-5x-5x-7x-----------------|

|-2x-3x-5x-5x-----------------|

|-0x----3x--------------------|



Solo

|----------------------------------|

|----------------------2--0--------|

|--------------11----1------1------|

|--------2---4----4------------4-4-|

|---2--4---------------------------|

|----------------------------------|

Letra subida por: Anónimo

El acorde de Even in His Youth de Nirvana es una versión de la canción original realizada por colaboradores/usuarios de Coveralia.

¿Has encontrado algún error en esta página? Envíanos tu corrección del acorde