música
Buscador

Acorde de Electrolite - Rem

Letra de Electrolite

G      320033  D      xx0232 

Cadd9 x32033 Em/G 322000



G Cadd9 G

Your eyes are burning holes through me.

Cadd9 G Cadd9 G Cadd9

I'm gasoline. I'm burnin' clean.



G Cadd9 G

Twentieth Century go to sleep

Cadd9 G

You're plasticine.

Cadd9 G

That is obscene.

Cadd9 D

That is obscene.



Am D

You are the star tonight.

Am D

Your sun electric, outta sight.

B Em G

Your light eclipsed the moon tonight.

Am Em Em/G G Am Em Em/G G D

Elecrolite. You're outa sight.



(Piano lead-in)

e--3--2--3------

B------------3---



G Cadd9 G

If I ever want to fly.

Cadd9 G

Mulholland Drive.

Cadd9 G

I am alive.



G Cadd9 G

Hollywood is under me.

Cadd9 G

I'm Martin Sheen

Cadd9 G

I'm Steve McQueen

Cadd9 D

I'm Jimmy Dean



Am D

You are the star tonight.

Am D

Your sun electric, outta sight.

B Em G

Your light eclipsed the moon tonight.

Am Em G Am Em G D

Elecrolite. You're outa sight



Solo section:



B-Am (x3)

C-D



https://www.coveralia.com/acordes/electrolite-rem.php

e---------------------7-8-7-5-------------7-11-14-14-15-12--------------------------------|

B-7-7s4-5-8-5-------7---------8-5-5-7h8-7------------------15-13-15-13s5-------7-8-10s3---|

G-------------5-4s1------------------------------------------------------5-7-9----------2-|

D-----------------------------------------------------------------------------------------|

A-----------------------------------------------------------------------------------------|

E-----------------------------------------------------------------------------------------|





e-3-2-3





(Piano lead-in)









G Cadd9 G

If you ever want to fly.

Cadd9 G

Mulholland Drive.

Cadd9 G C9

Up in the sky.

G Cadd9 G

Stand on a cliff and look down there.

Cadd9 G Cadd9 G

Don't be scared, you are alive.

Cadd9 D

You are alive.





Am D

You are the star tonight.

Am D

Your sun electric, outta sight.

B Em G

Your light eclipsed the moon tonight.

Am Em G Am Em G D

Elecrolite. You're outa sight





G Cadd9 G

Twentieth century go and sleep

Cadd9 G

Really deep

Cadd9 G Cadd9

We won't blink





G Cadd9 G

You're eyes are burnin' holes through me.

Cadd9 G

I'm not scared

Cadd9 G

I'm outa here.

Cadd9 G

I'm not scared.



I'm outa here.

Letra subida por: Anónimo

El acorde de Electrolite de Rem es una versión de la canción original realizada por colaboradores/usuarios de Coveralia.

¿Has encontrado algún error en esta página? Envíanos tu corrección del acorde