música
Buscador

Acorde de El Último Beso - Marc Anthony

Letra de El Último Beso

INTRO:  Cm-Cm7-A# -D7-Gm



e -------------------------------------------------------------6-5-3-2

B -4--1-1-1-1-3-4--4-4-4-4-4-3--3-3-3-3-3-1--3-1-----1---4-3-4--------

G -----------------------------------------------3-2--3---------------

D --------------------------------------------------------------------

A --------------------------------------------------------------------

E --------------------------------------------------------------------







Gm

El último beso

D7

Que puse en tus labios

Gm

Todavía lo siento

G7

Me diste un abrazo



Y con el rostro triste

Cm

Me dijiste adiós

D7

No pude aguantarme



Y al verte llorando

Gm

Tuve que llorar



Y pasaron los años

Cm7

Muchos, muchos años

D7

Y no sé dónde estás





e ------------------------------------

B ---3-4-3-1-3-1---1------------------

G ---------------3---3-2-3-2-0--------

D ------------------------------------

A ------------------------------------

E ------------------------------------



Gm

No sé si eran tuyas

D7

No sé si eran mías

Gm

Lágrimas probé

G7

Lágrimas amargas



Que humedecieron mis labios

https://www.coveralia.com/acordes/el-ultimo-beso-marc-anthony.php

Cm

Cuando te besé



Y con voz quebrantada



Cm7

Me dijiste te quiero

D7

Y quise enloquecer

Gm

Yo seguí mi camino

D7

Pasaron los años

Gm

Y nunca te olvidé

Gm

Yo seguí mi camino

F Cm7

Pasaron los años

D7 G

Y nunca te olvidé



Coro:

G D7 C

Lo que pasó pasó

D7 G

Y nunca te olvidé

G7 C

Lágrimas lloré

D7 G

La vida no es color de rosa

Lo que pasó pasó

Y nunca te olvidé

Lágrimas lloré

La vida no es color de rosa



G

El ultimo beso que puse

D7

En tus labios

G

Todavía lo siento

G7 C

Y cuando me dijiste adiós

D7

Tuve que llorar

G

Y sigo llorando



Sigo llorando



Repite Coro (Se repite esta estructura hasta el final)

Letra subida por: Anónimo

El acorde de El Último Beso de Marc Anthony es una versión de la canción original realizada por colaboradores/usuarios de Coveralia.

¿Has encontrado algún error en esta página? Envíanos tu corrección del acorde