música
Buscador

Acorde de El Rey Tiburón - Mana

Letra de El Rey Tiburón

Intro: D (varias veces)

(Gm - D) x2

e|---------------------------------------------|

B|---------------------------------------------|

G|---------------------------------------------|

D|---------------------------------------------|

A|----5-6-5-6-5-3.-3-3-5---5-6-5-6-5-3.-3-3-5--|

E|-3.-------------------2----------------------|



D# - D - D# - F/D#/D - (Riff 1) - Gm...



Riff 1

e|---------------|

B|-----1---------|

G|-2-3---3-2/3/2-|

D|---------------|

A|---------------|

E|---------------|



Todos me llaman el pez tiburón,

el rey de los mares salados,

todos me llaman el pez tiburón, el rey, el amante dotado.



Gm D

Ayayay ay voy desafiando el amor,

Gm

en busca de algunas sirenas,

D

ayayay ay, voy mordiendo el amor

D# D

cuidado sirenas, ya ha llegado,

D# D G (Riff 2) D...

y está desenfrenado, ya llegó el tiburón.



Riff 2

e|--------------|

B|--------5-3---|

G|----4-5-------|

D|-5.---------5-|

A|--------------|

E|--------------|



CORO

G D

Soy el rey de la mar, tiburón,

G

el que te come a besos,

D

pero yo soy el rey del mar, tiburón,

G

el que te come mi amor,

D

ayayay bombón, mi sirena de amor,

G

y ten cuidado del beso,

D Gm

ayayay ayayay es exceso de amor, que ya llegó el tiburón.



(Gm - D) x2 - Gm...

e|---------------------------------------------|

B|---------------------------------------------|

G|---------------------------------------------|

D|---------------------------------------------|

A|----5-6-5-6-5-3.-3-3-5---5-6-5-6-5-3.-3-3-5--|

E|-3.-------------------2----------------------|



https://www.coveralia.com/acordes/el-rey-tiburon-mana.php

D

Canto en la vida que soy tiburón,

Gm

estoy del amor enamorado,

D

sé que encanto a la vida y encanto al amor,

Gm

que yo soy tiburón enamorado.

D

Ayayay que te como mi amor,

Gm

te entierro mis dientes, mi ardor,

D

Ayayay bombón, que te como mi amor

D# D

cuidado sirenas ya, ya ha llegado,

D# D G (Riff 2) D...

y está desenfrenado, ya llegó el tiburón.



CORO



SOLO

e|--------------------------------------2---------------

B|---------3-4-4-3/4/3----------4/3/2-3---4-3-----------

G|---2-3-5-------------5-3-2..----------------5-5./3..--

D|-5----------------------------------------------------

A|------------------------------------------------------

E|------------------------------------------------------



e|---------------------------------------------

B|-----------------13.----13-15.-16-15-14-15.--

G|-12-14-15.-14-15-----15----------------------

D|---------------------------------------------

A|---------------------------------------------

E|---------------------------------------------



e|-------------14----------------------14----------------------14----

B|-16-15-14-15----15-14-15-16-15-14-15----15-14-15-16-15-14-15-------

G|-------------------------------------------------------------------

D|-------------------------------------------------------------------

A|-------------------------------------------------------------------

E|-------------------------------------------------------------------



e|----------------------------------------|

B|-14-15-16-15-14-15----------------------|

G|-------------------15-14-------14-------|

D|-------------------------17-16----17..--|

A|----------------------------------------|

E|----------------------------------------|



Cm Gm

Y viene el tiburón, que tiene todo, todo en su vida,

D Gm

que en realidad está en soledad.

Cm Gm

Y viene el tiburón que nunca encuentra,

D#

solo anda en busca, busca su presa amor;

D G (Riff 2) D...

ya llegó, ya llegó el tiburón.



CORO



INTRO

El acorde de El Rey Tiburón de Mana es una versión de la canción original realizada por colaboradores/usuarios de Coveralia.

¿Has encontrado algún error en esta página? Envíanos tu corrección del acorde