música
Buscador

Acorde de El Gran Pozo Criollo - Malon

Letra de El Gran Pozo Criollo

obtenido en	: www.malonweb.com.ar





Intro (es arpegiada, esas son las principales notas)



e|----------------------------------------|

B|----------------------------------------|

G|----------------------------------------| X4

D|----3-2----1--1-------------------------|

A|--5-----3---------5----3----------------|

E|--------------------6-----3--5--5-------|



La intro sería algo asi, aunque no estoy seguro.



e|-----------------------------------------------------------------------|

B|-----------------------------------------------------------------------|

G|------7------10-----9-----5-----8--------7-----------------------------|

D|----7-----10------9-----5-----8--------7-------8------10-----5-----7---| X4

A|--5-----8-------7-----3-----6-----6--5-------8-----10------5-----7-----|

E|-------------------------------------------6-----8-------3-----5-----5-|





Riff 1 (4 veces).



e|---------------------------------------------------------------------|

B|---------------------------------------------------------------------|

G|---------------------------------------------------------------------|

D|---------------------------------------------------------------------|

A|--6--5--6--5--6--5--3--5--5--6--5----6--5--6--5--6--5--3-3---3-3-3---|

E|--4--3--4--3--4--3--1--3--3--4--3----4--3--4--3--4--3--1-1---1-1-1---|





Base.



e|------------------------------------------------|

B|------------------------------------------------|

G|------------------------------------------------|

D|------------------------------------------------|

A|-2--3--3--3--2--7/8--2--3--3--3--3--3--2--7/8---|

E|-0--1--1--1--0--5/6--0--1--1--1--1--1--0--5/6---|



Un futuro oscuro, sangre que hierve al pensar.

https://www.coveralia.com/acordes/el-gran-pozo-criollo-malon.php



Elegidos del pueblo, por decidir la inversión.

El suelo firme está, Gastre parece ideal.

Gauchos y jóvenes, mísera tierra de nadie.



Riff 1



El gran pozo criollo o el bienestar

la fría Patagonia sin la verdad.



Base



Dinero y radiación van de las manos prendidas.

El honor también el alma, la ambición es desmedida.

Algún dia la tierra firme mostrará su inmovilidad.

El principio radiactivo cubrirá los ojos de miles.





Riff1



El gran pozo criollo o el bienestar

la fría Patagonia sin la verdad.

El gran pozo criollo o el bienestar

la fría patagonia sin la verdad.



Base



Dinero y radiación van de las manos prendidas.

El honor también el alma, la ambición es desmedida.

Algún dia la tierra firme mostrará su inmovilidad.

El principio radiactivo cubrirá los ojos de miles.



Riff1



El gran pozo criollo o el bienestar

la fría Patagonia sin la verdad.

El gran pozo criollo o el bienestar

la fría Patagonia sin la verdad.

El gran pozo criollo, duelo de la verdad.



Letra subida por: Anónimo

Discos en los que aparece este acorde: Justicia O Resistencia

El acorde de El Gran Pozo Criollo de Malon es una versión de la canción original realizada por colaboradores/usuarios de Coveralia.

¿Has encontrado algún error en esta página? Envíanos tu corrección del acorde