música
Buscador

Acorde de El Camino - No Te Va Gustar

Letra de El Camino

[INTRO]



e|-------------------------|--|

B|-------------------------|--|

G|-------------------------|x6|

D|-------------------------|x6|

A|---------5---------------|--|

E|-5~-0-3-3-5~--0-4-4-4-5~-|--|



[VERSO]



Am G Dm Am

No estamos preparados para morir

Am G Dm Am

al mundo no le importa lo que sentís

Am G Dm Am

no es lo que me dijo mi educación

Am G Dm Am

no quiero formar parte pido perdón



[SAXO] en Am



|+++RIFF+++|

e|-------------5-3-------|

B|-------4~-7~----5-3-55-|

G|----5~-----------------|

D|-7~--------------------|

A|-----------------------|

E|-----------------------|



[VERSO] se hace el Riff de fondo también



Se trata con desprecio todo da igual

se gana a cualquier precio nada está mal

no es lo que me dijo mi educación

no quiero formar parte, pido perdón



[ESTRIBILLO]



C G Gm F

Volvé a nacer, no dejes que nos mientan

C G Gm F G#

quiero creer que no estamos a la venta



[PUENTE] en Am



Am G#m Am

https://www.coveralia.com/acordes/el-camino-no-te-va-gustar.php

No nos atrae vivir apurados

Am G#m Am

no nos alcanza el hecho de llegar

Am G#m Am

no nos molesta el camino mas largo

Am G#m Am

no nos preocupa que pueda pasar



C-G-Gm-F x2



[ESTRIBILLO]



Volvé a nacer, no dejes que nos mientan

quiero creer que no estamos a la venta



[VERSO]



Se trata con desprecio, todo da igual

se gana a cualquier precio, nada esta mal

no es lo que me dijo mi educación

no quiero formar parte, pido perdón

Am

pido perdón



[REPITE INTRO]



e|-------------------------|

B|-------------------------|

G|-------------------------|

D|-------------------------|

A|---------5---------------|

E|-5~-0-3-3-5~--0-4-4-4-5~-|



Después de un rato hace esto repetidas veces:



e|------|

B|------|

G|------|

D|------|

A|------|

E|-3-55-|



Termina en Am





Letra subida por: Anónimo

Discos en los que aparece este acorde: El Camino Mas Largo , Publico (Dvd) , Publico

El acorde de El Camino de No Te Va Gustar es una versión de la canción original realizada por colaboradores/usuarios de Coveralia.

¿Has encontrado algún error en esta página? Envíanos tu corrección del acorde