música
Buscador

Acorde de El Camino (Canción Original De La Película "Thi Mai: Rumbo A Vietnam") - Pablo Lopez

Letra de El Camino (Canción Original De La Película "Thi Mai: Rumbo A Vietnam")

[Intro]



G# - F6sus2 - C/E - C x2



G# F6sus2 C/E

He llegado hasta aquí por que nunca deje de buscarte.

G# F6sus2 C/E

He aprendido a vivir el camino y no quiero volver.

Am G# C G#

Y tampoco quiero que me duela los finales,las miserias,

F Fm

los idiotas enfadados;los abrazos de cartón.

C Am G C Am G

De le-jos te vi,de lejos me has hecho felíz.

F Am

Y no quiero dejar de buscarte por este camino.

F Am G

Te he contado que no te conozco y te quiero...de lejos! Eh!!!



[Fase instrumental]



G# - F6sus2 - C/E - C

G# - F6sus2 - C



G# F6sus2 C/E

Y te juro que vale la pena caer y romperse la cara.

G# F6sus2 C/E

¡Qué regalo tan grande aprender de lo que nos dolió!

Am G# C G#

Qué regalo estar en este viaje de románticos salvajes,

F Fm

soñadores desterrados;caminantes del amor.

C Am G C Am G

https://www.coveralia.com/acordes/el-camino--cancion-original-de-la-pelicula--thi-mai--rumbo-a-vietnam---pablo-lopez.php

De le-jos te vi,de lejos me has hecho felíz.

F Am

Y no quiero dejar de buscarte por este camino.

F Am G

Te he contado que no te conozco y te quiero...de lejos! De lejos!



C - Am - G x2

Oooooooh! Nolohondo iiiinde noh! [XD]

F Am

Yo no quiero dejar de buscarte por este camino.

F Am G

Te he contado que no te conozco y te quiero...de lejos! De lejos!



[Fase instrumental 2(oriental)+ CLÍMAX]



G# - F6sus2 - C/E - C X6

Te buscaré sin descansar no dejaré de caminar X3

He llegado hasta aquí por que nunca dejé de buscarte...



e------------------------------------

b--8/11-11/8---------------------11--

g------------10-10-(8)---------11----

d----------------------10-10/13------

a------------------------------------

E------------------------------------ F6sus2



e------------------------------------. | e--3---

b--8/11-11/8---------------------12--. | b--3---

g------------10-10-(8)---------11----. | g--5---

d----------------------10-10/13------. | d--3---

a------------------------------------. | a--x---

E------------------------------------. | E--x---

Discos en los que aparece este acorde: Camino, Fuego Y Libertad

El acorde de El Camino (Canción Original De La Película "Thi Mai: Rumbo A Vietnam") de Pablo Lopez es una versión de la canción original realizada por colaboradores/usuarios de Coveralia.

¿Has encontrado algún error en esta página? Envíanos tu corrección del acorde