Quantcast
música
Buscador

Acorde de Dreams - Van Halen

Letra de Dreams

 Intro: 

Em F Em G F C G

E|-----------------|---------------------|------------|--------------------------------|

B|-----------------|-----1-1-3-3-5-1-0-0-|------------|--------------------------------|

G|-----5-5-7-7-5-5-|---2-----------------|---5-7-9-10-|-12-12-9--7-9-7--10-10-9-10-9-7-|

D|---5-------------|-3-------------------|-5----------|--------------------------------|

A|-3---------------|---------------------|------------|--------------------------------|

E|-----------------|---------------------|------------|--------------------------------|

( C Em F G ) 2X

Verse 1-

Am Em Am Em

World turns black and white, pictures in an empty room.

Am Em F G

Your love starts fallin' down, better change your tune.

Am Em Am Em

Yeah, you reach for the golden ring, reach of the sky.

F G

Baby just spread your wings, and get...



Chorus-

C Am Em F G

Higher and higher, Higher and higher, straight up we'll climb.

C Am Em F G

We'll get higher and higher, higher and higher, leave it all behind.

Verse 2-

Am Em Am Em

Run, run, run away, like a train runnin' off the track.

Am Em F G

Got the truth bein' left behind, fall between the cracks.

Am Em Am Em

Standin' on broken dreams, never losing sight.

F G

Ah! Well, just spread your wings. We'll get...

*Chorus*



https://www.coveralia.com/acordes/dreams-van-halen.php

Bridge-

Em F

So baby, dry your eyes,

Em G

save all the tears you've cried.

F C G

Oh, that's what dreams are made of.

Em F Em G

'Cause we belong in a world that must be strong.

F C G

Wo, that's what dreams are made of.

(Instrumental solo ad. lib)

Yeah, we'll get...

Chorus 2-

C Am Em F G

Higher and higher, higher and higher, straight up we'll climb.

C Am Em F G

Higher and higher, higher and higher, leave it all behind.

C Am Em F G

Oh, we'll get higher and higher, higher and higher, who knows what we'll find.

*Bridge*

(Instrumental)

Em F Em G

And in the end on dreams we will depend.

F C G

'Cause that's what love is made of.

(Solo final)

E|-13-12-12-13--8~-|-13-13-10--------8-5-1-3~--|

B|-----------------|----------11---------------|

G|-----------------|-------------10------------|

D|-----------------|---------------------------|

A|-----------------|---------------------------|

E|-----------------|---------------------------|

Letra subida por: Anónimo

El acorde de Dreams de Van Halen es una versión de la canción original realizada por colaboradores/usuarios de Coveralia.

¿Has encontrado algún error en esta página? Envíanos tu corrección del acorde