música
Buscador

Acorde de Disco Lipstick - Octavia

Intro: 

|----5---5---5-5----5---------|----2---2---2-2----2-----|

|----7---7---7-7----7---------|----3---3---3-3----3-----|

|----6---6---6-6----6---------|----4---4---4-4----4-----|

|----x---x---x-x----x---------|----x---x---x-x----x-----|

|----x---x---x-x----x---------|----x---x---x-x----x-----|

|----x---x---x-x----x---------|----x---x---x-x----x-----|

Dm.5° Bm

no castigues más mis oídos no me llames más



Dm.5°

no castigues más mis oídos

Bm

no me llames más

Dm.5°

no sé si es tu voz, o el sonido

Bm

lo que no aguanto más



D7 Bm

dame un segundo para respirar

D7 Bm

nunca el silencio fue una necesidad

D7 Bm G

y es que me estás matando



|---------x--------|---------x-----------|----------x-----------|-------x------

|---------x--------|---------x-----------|----------x-----------|-------x------

|---------x--------|---------x-----------|----------x-----------|-------x------

|---------0--------|---------0-----------|----------x-----------|-------0------

|---------2--------|---------4-----------|----------9-----------|-------5------

|---------3--------|---------5-----------|----------7-----------|-------3------

G G.5° B G.3°



coro

G

yo necesito paz

G.5°

ya no quiero hablar

B G.3°

pues no me importa lo que tengas que decir

https://www.coveralia.com/acordes/disco-lipstick-octavia.php

G

yo nunca fui feliz

G.5°

nunca quise oír

B G.3°

ya no me importa lo que tengas que decir





Dm.5°

me gustan tus labios de seda

Bm

y en silencio, más

Dm.5°

eres una diosa eres bella

Bm

hasta que empiezas a hablar





D7 Bm

no sé qué tienes que recriminar

D7 Bm

Creo que un sordo te amaría más

D7 Bm G

y es que me estás matando





G

yo necesito paz

G.5°

ya no quiero hablar

B G.3°

pues no me importa lo que tengas que decir

G

yo nunca fui feliz

G.5°

nunca quise oír

B G.3°

ya no me importa lo que tengas que decir



(no me llames más)

Letra subida por: Anónimo

Discos en los que aparece este acorde: Ciclos

El acorde de Disco Lipstick de Octavia es una versión de la canción original realizada por colaboradores/usuarios de Coveralia.

¿Has encontrado algún error en esta página? Envíanos tu corrección del acorde