música
Buscador

Acorde de Despiértame - Octavia



ACORDES:



C#m7 Bsus4 E7 Aadd9 F#m E Dsus2 A F#

e|--0-----0-----0----0------2---0----0----0---2--|

B|--0-----0-----0----0------2---0----3----2---2--|

G|--6-----4-----x----6------2---1----2----2---3--|

D|--6-----4-----6----7------4---2----0----2---4--|

A|--4-----2-----6----7------4---2---------0---4--|

E|--------------4----5------2---0-------------2--|







INTRO:



C#m7 Bsus4 E7 Aadd9 C#m7 Bsus4 E7 Aadd9 C#m7 Bsus4 E7 Aadd9

e|--7--|--7---|--9--|--9---|-7-9-9-7----|-----|-7-9-9-7----|-----|--7-9-9-7-|-12---|-12-|-12---|

B|-----|------|-----|------|---------10-|-9---|---------10-|-9---|----------|------|----|------|

G|-----|------|-----|------|------------|-----|------------|-----|----------|------|----|------|

D|-----|------|-----|------|------------|-----|------------|-----|----------|------|----|------|

A|-----|------|-----|------|------------|-----|------------|-----|----------|------|----|------|

E|-----|------|-----|------|------------|-----|------------|-----|----------|------|----|------|

ESTA ES LA TONADA DE LA QUENA HECHA PARA LA GUITARRA





C#m7 Bsus4

Claro que si

E7 Aadd9

Guíame hasta el borde del precipicio

C#m7 Bsus4

Claro que si

E7 Aadd9

Me lazare contigo no hay peligro





F#m E Dsus2 A

Cruzare el desierto sin dudar

E

Tú eres mi voluntad

F#m E Dsus2 A

Pero si este sueño es solo mió

E

Prefiero despertar





E F#

Despiértame regrésame al principio

E F#

Despiértame libérame del sacrificio

E F#

Despiértame (despiértame) levántame el hechizo

E F#

Despiértame si no cuento contigo

https://www.coveralia.com/acordes/despiertame-octavia.php





C#m7 Bsus4 E7 Aadd9 C#m7 Bsus4 E7 Aadd9

e|--7--|--7---|-7-9-9-7----|------|--7-9-9-7-|-12---|-12-|-12---|ESTA ES LA TONADA DE

B|-----|------|---------10-|-9----|----------|------|----|------|LA QUENA HECHA PARA LA

G|-----|------|------------|------|----------|------|----|------|GUITARRA

D|-----|------|------------|------|----------|------|----|------|

A|-----|------|------------|------|----------|------|----|------|

E|-----|------|------------|------|----------|------|----|------|





C#m7 Bsus4

Claro que no,

E7 Aadd9

No comeré tu serás mi alimento

C#m7 Bsus4

Claro que no,

E7 Aadd9

No tendré sed tu sangre me da vida





F#m E Dsus2 A

Surcare los mares en tempestad

E

Tú serás mi valor

F#m E Dsus2 A

Pero si este sueño es solo mió

E

Prefiero despertar





E F#

Despiértame regrésame al principio

E F#

Despiértame libérame del sacrificio

E F#

Despiértame (despiértame) levántame el hechizo

E F#

Despiértame si no cuento contigo



E F# E

Despiértame despiértame

E F# E

Despiértame despiértame

E F# E

Despiértame despiértame

E F# E

Despiértame despiértame







Letra subida por: Anónimo

Discos en los que aparece este acorde: Talisman

El acorde de Despiértame de Octavia es una versión de la canción original realizada por colaboradores/usuarios de Coveralia.

¿Has encontrado algún error en esta página? Envíanos tu corrección del acorde