música
Buscador

Acorde de Cuando Cae La Luna - Estopa

Letra de Cuando Cae La Luna



-6-6-6-6-5-3-1-1*3--5-5-5-5-3-1-------3-3-3-3-1-------------0-1-3-5-6-8-6*8*5------------------

--------------------------------5-5*6-----------4-3-1---0-1-3----------------------------------

------------------------------------------------------2----------------------------------------

-----------------------------------------------------------------------------------------------

-----------------------------------------------------------------------------------------------

-----------------------------------------------------------------------------------------------





-10-10-10-10-8-6-5-5*6--8-8-8-8-6-5--3-3*5---6-6-6-6-5-3-1-1-----------0-1-3-5-6-8-10-11-8*10--

-------------------------------------------------------------4---0-1-3-------------------------

---------------------------------------------------------------2-------------------------------

-----------------------------------------------------------------------------------------------

-----------------------------------------------------------------------------------------------

-----------------------------------------------------------------------------------------------





Em

Cuando cae la luna, tu mueves el pelo,

E7 Am

mueves las caderas como ninguna.

D

Cuando cae la noche, yo me desespero,

G

tengo quencontrarte o me entran los dolores.

C

Cuando caen las horas, piensa que es mi tiempo

Am

que se esta muriendo de este mal de amores

B7 Em

piensa quen invierno es cuando se marchitan los corazones.



Em D

Cuando te digan que me he pasao toa la vida

C B7

buscando tu negro pelo y tus dos blancas mejillas.

Em D

El aire que respira el aliento que da la vida

C B7

piensa que me estoy muriendo curandote las heridas.

https://www.coveralia.com/acordes/cuando-cae-la-luna-estopa.php



Em D

Y yo te digo morena vente conmigo.

Em D

No ves que me desespero? Escucha bien lo que digo

C B7

prometo llevarte al cielo si te acercas un poquito.



Em

Cuando venga el viento vienen los fantasmas

E7 Am

a tocarme las palmas y a meterme miedo.

D7

Cuando vengan dudas preguntale al aire

Sol

si soy un don nadie por verte desnuda

C

Y no me arrepiento de tanto sufrimiento

Am

si te tengo cerca duele mucho menos

B7 Em

porque en esta vida lo que tu me pidas me lo pide el cuerpo.





Em D

Cuando te digan que me he pasao toa la vida

C B7

buscando tu negro pelo y tus dos blancas mejillas.

Em D

El aire que respira el aliento que da la vida

C B7

piensa que me estoy muriendo curandote las heridas.



Em D

Y yo te digo morena vente conmigo.

Em D

No ves que me desespero? Escucha bien lo que digo

C B7

prometo llevarte al cielo si te acercas un poquito.

Letra subida por: Anónimo

Discos en los que aparece este acorde: ¿La Calle Es Tuya?

El acorde de Cuando Cae La Luna de Estopa es una versión de la canción original realizada por colaboradores/usuarios de Coveralia.

¿Has encontrado algún error en esta página? Envíanos tu corrección del acorde