música
Buscador

Acorde de Crystal Ball - Pink

Letra de Crystal Ball

Capo na 4ª



e|------------------------------------------------|

B|------------------------------------------------|

G|----0-------0-------0-------0-------------------|

D|---0------0-------0-------0---------------------|

A|--2---2-3-----3-2-----2-3-----------------------|

E|-3---3-3-3-3-3-3-3-3-3-3-3-3--------------------|



"Oh Iv'e had my chances and I've taken 'em all"

e|------------------------------------------------|

B|------------------------------------------------|

G|------------------------------------------------| x2

D|------------------------------------------------|

A|---2-2-2-2-3-3-3-3-2-2-2-2-3-3-3-3--------------|

E|--3-3-3-3-3-3-3-3-3-3-3-3-3-3-3-3---------------|



"Pennys In a well" ...Million dollors in the fountain of a hotel."

Strum these chords and add a hammer and pull off on the C chord (like it says on the tab)

Justin does it :) It sounds awesome!



e|-3------------------0--------------------------|

B|-3------------------1----1---------------------|

G|-0------------------0----0h2p0--0--------------|

D|-0------------------2----0---------0-----------|

A|-2------------------3--3-----------------------|

E|-3---------------------------------------------|

Fortune teller says.....



e|-3------------------0--------------------------|

B|-3------------------1----1---------------------|

G|-0------------------0----0h2-0-----------------|

D|-0------------------2----0---------0-----------|

A|-2------------------3--3-----------------------|

E|-3---------------------------------------------|



"Maybe you will go to hell"

e|------0----------------------------------------|

B|-----0-----2-----------------------------------|

G|----0-----2--0---------------------------------|

D|---2-----2-------------------------------------|

A|--2-----0--------------------------------------|

E|-0---------------------------------------------|



"(1) Im not scared at all....(2)Mmmm Mmmm Mmmm Mmmm Mmmm"

e|-----------------------------------------------|

B|-----------------------3-----------------------|

G|----0---0---0----0---2---2---------------------| x2

D|---2---0---0----0---0-------0------------------|

A|--3---2---0------------------------------------|

E|---------------3---2---------------------------|



"The cracks in the crystal, cracks in the crystal ball."

e|--------------------0---------------------------|

B|------1---------------1-------------------------|

G|--------2---2-----------2-----------------------|

D|---3------3----3--------------------------------|

A|------------------------------------------------|

E|------------------------------------------------|



e|-----------3------------3-----------3----------------|

B|------0h1----------0h1----------0h1---0--------------|

G|------0-------0----0------0----0---------------------|

D|----0-------------0-----------0-------------0-----0--|

https://www.coveralia.com/acordes/crystal-ball-pink.php
A|----------------------------------------------2------|

E|--3--------------3-----------3------------3-----3----|



Verses: Repeat as many times need.

e|------------------------------------------------|

B|------------------------------------------------|

G|----0-------0-------0-------0-------------------|

D|---0------0-------0-------0---------------------|

A|--2---2-3-----3-2-----2-3-----------------------|

E|-3---3-3-3-3-3-3-3-3-3-3-3-3--------------------|



"Oh I've Felt that fire and I, I've been burned."

e|------------------------------------------------|

B|------------------------------------------------|

G|------------------------------------------------| x2

D|------------------------------------------------|

A|---2-2-2-2-3-3-3-3-2-2-2-2-3-3-3-3--------------|

E|--3-3-3-3-3-3-3-3-3-3-3-3-3-3-3-3---------------|



"Pennys In a well" ...Million dollors in the fountain of a hotel"

e|-3------------------0--------------------------|

B|-3------------------1----1---------------------|

G|-0------------------0----0h2p0--0--------------|

D|-0------------------2----0---------0-----------|

A|-2------------------3--3-----------------------|

E|-3---------------------------------------------|

Fortune teller says.....

e|-3------------------0--------------------------|

B|-3------------------1----1---------------------|

G|-0------------------0----0h2-0-----------------|

D|-0------------------2----0---------0-----------|

A|-2------------------3--3-----------------------|

E|-3---------------------------------------------|



"Maybe you will go to hell"

e|------0----------------------------------------|

B|-----0-----2-----------------------------------|

G|----0-----2--0---------------------------------|

D|---2-----2-------------------------------------|

A|--2-----0--------------------------------------|

E|-0---------------------------------------------|



"(1) Im not scared at all....(2)Mmmm Mmmm Mmmm Mmmm Mmmm"

e|-----------------------------------------------|

B|-----------------------3-----------------------|

G|----0---0---0----0---2---2---------------------| x2

D|---2---0---0----0---0-------0------------------|

A|--3---2---0------------------------------------|

E|---------------3---2---------------------------|



"Of the cracks in the crystal, cracks in the crystal ball."

e|--------------------0---------------------------|

B|------1---------------1-------------------------|

G|--------2---2-----------2-----------------------|

D|---3------3----3--------------------------------|

A|------------------------------------------------|

E|------------------------------------------------|



e|-----------3------------3-----------3----------------|

B|------0h1----------0h1----------0h1---0--0h1p0-------|

G|------0-------0----0------0----0---------0h2p0-----0-|

D|----0-------------0-----------0----------------0h2---|

El acorde de Crystal Ball de Pink es una versión de la canción original realizada por colaboradores/usuarios de Coveralia.

¿Has encontrado algún error en esta página? Envíanos tu corrección del acorde