música
Buscador

Acorde de Corazón - Hany Kauam

Letra de Corazón

Riff 1

e---3-----3--3---2-----2--2---3-----3--3---3-----3--3-

b---3--3---------3--3---------3--3---------3--3-------

g-----------------------------------------------------

d-----------------------------------------------------

a-----------------------------------------------------

E-----------------------------------------------------



Riff 2

e---10---10-----9-----9-----8-----8-----7-----7--

b------8-----------8-----------8-----------8-----

g------------------------------------------------ x2

d------------------------------------------------

a------------------------------------------------

E------------------------------------------------





I estrofa:

Em D G

ya nada pasara si yo me envuelvo en tu mirada

C Em D

yo tengo un corazon que a ti te busca y enloquece cuando faltas

C G

tan cerca de mi mi pensamiento te ama

C Em D

y hoy me es inevitable no buscarte y no mirar en la ventana





CORO:

G D Em

Corazon tu me haces tanta falta

C

que no consigo el sueño por las noches

D

si no estas aqui en mi cama

G D Em

corazon es mi alma que te llama

C

y no quiere alejarse ni un segundo

D

porque siente que tu tambien me amas





Riff 2





II estrofa:

E D G

y nada pasara si yo me envuelvo en tus palabras

C Em D

yo tengo un corazon que a ti te escucha y enloquece

C G

cuando callas y puede sentir que hasta gritos tu me llamas

C Em D

y no quiere alejarse ni un segundo porque sabe que me amas





CORO:

G D Em

Corazon tu me haces tanta falta

https://www.coveralia.com/acordes/corazon-hany-kauam.php

C

que no consigo el sueño por las noches

D

si no estas aqui en mi cama

G D Em

corazon es mi alma que te llama

C

y no quiere alejarse ni un segundo

D

porque siente que tu tambien me amas





Puente:

G D Em

y guardare cada palabra y cada beso guardare cada recuerdo

C D G

de ese amor que tu me dabas y yo estare en cada lagrima

D Em C

que salga y cada estrella que te alumbre tendra parte d mi alma

D Em D G

donde tu vayas ya nada pasara si yo me envuelvo en tu mirada





Riff 3

e---------------------------------------------------------

b---------------------------------------------------------

g---7-7-0-0-7-7-0-0-5-0-0-0-0-5-5-0-0-5-5-0-0-7-7-9-7-7---

d---------------------------------------------------------

a---------------------------------------------------------

E---------------------------------------------------------





Riff 4

e---3--7-7-7-5-7-5--3-5-5-5-3-5-3----------------

b---3---------------3----------------------------

g------------------------------------------------

d------------------------------------------------

a------------------------------------------------

E------------------------------------------------



CORO:

G D Em

Corazon tu me haces tanta falta

C

que no consigo el sueño por las noches

D

si no estas aqui en mi cama

G D Em

corazon es mi alma que te llama

C

y no quiere alejarse ni un segundo

D

porque siente que tu tambien me amas



Último Coro: Riff 2



CORO:

Em D C G

na nanana nanana nanana nanana nanana nanana

Letra subida por: Anónimo

Discos en los que aparece este acorde: Hany Kauam

El acorde de Corazón de Hany Kauam es una versión de la canción original realizada por colaboradores/usuarios de Coveralia.

¿Has encontrado algún error en esta página? Envíanos tu corrección del acorde