Quantcast
música
Buscador

Acorde de Como Te Mueves - Nek

Letra de Como Te Mueves

                   D                  Am                G

e -------------------|-----------------|-----------------|

b -------------------|-----------------|-----------------|

G -------------------|-----------------|-----------------|

D -------------------|-----------------|-----------------|

A -----5-3- 0- 5-----|----5-3-0--------|---5-3-0~5-------|

E -------------------|-------------3---|-----------------|

Am D

e--------------------|-----------|

b--------------------|-----------|

G--------------------|-----------|

D--------------------|-----------|

A----5-3-0-----------|-----5~3---|

E----------1~3-------|-----------|



D Am G Am Dm Gm Am C Dm



Gm

Más de lo qué sé lo aprendo en tu cuerpo

Am Dm Am Dm

cada noche hay caricias que nunca probé.

Gm

Eres una adicción un peligro de incendio

Am

y mi perdición es tu forma de decirme ven





Bb Am Gm Am

Sa - bes bien hacer que pierda la cabeza,sabes

Gm Am

cómo te debes mover y me dan vértigo esas piernas,

F - Bb F Gm

que no en - señan todo lo que quiero ver

Dm Gm

y sólo por seguir tus pasos, he olvidado otros nombres de mujer

Am Dm Bb Dm

no hay pasado si no estás en él





Am Gm Am Dm Am Gm Am Dm



Gm

Si me miras así , tú siempre me puedes

Am Dm Am

https://www.coveralia.com/acordes/como-te-mueves-nek.php

ojos de perfil que me hacen sucumbir

Dm

y no hay más ley que tu boca diciendo

Gm Am

que quieres que pruebe, no te importa el lugar

Bb F Gm

si quieres cobrar, besos im - pa - cientes





Dm

Vas a hacer que pierda la cabeza. Sabes

Gm Am

cómo te debes mover, y me dan vértigo esas piernas

Bb - F Gm

que no enseñan, to - do lo que quiero ver

Dm

no sé quién te enseñó a quererme, pero siempre

Gm

me vuelves a sorprender

C Bb A

márcame el ritmo y yo te seguiré

Bb A Dm Bb F Bb F

hasta que comience a a - ma - necer

Gm Dm - Bb

Y el tiempo no le hará daño a nuestra pasión

Am

y cada noche será la noche mejor

Gm Am

soy el que juega a tus juegos prohibidos

Dm Gm

Haces que pierda la cabeza, sabes cómo te debes mover

Am Bb - F

y me dan vértigo esas piernas que no enseñan to - do

Gm

lo que quiero ver

Dm Gm

y sólo por seguir tus pasos he olvidado otros nombres de mujer

C - Bb A

márcame el rit - mo y yo te seguiré

Bb A Dm

quiero ser parte de tí....



Letra subida por: Anónimo

Discos en los que aparece este acorde: Entre Tu Y Yo

El acorde de Como Te Mueves de Nek es una versión de la canción original realizada por colaboradores/usuarios de Coveralia.

¿Has encontrado algún error en esta página? Envíanos tu corrección del acorde