música
Buscador

Acorde de Cicatrizando - Malon

Letra de Cicatrizando



Intro y verso:



e|-------------------------------------------

B|-------------------------------------------

G|-------------------------------------------

D|--9--9--9----12--12--11--------------------

A|--7--7--7----10--10--9---------------------

E|-------------------------------------------



Intro:

Lo importante es compartir nunca lo olvides,

y si alguien ya no está el destino así lo quizo.





La herida sangra dos veces

e|-------------------+------------------------

B|-------------------+------------------------

G|-------------------+------------------------

d|-12--9--10-9-------+--12--12--10-13--12-----

a|-10--7--8--7-------+--10--10--8--11--10-----

E|-------------------+------------------------



Al producirse y al recordar

e|-------------------+------------------------

B|-------------------+------------------------

G|-------------------+------------------------

d|-10-12--9--10-9----+--12--12--10-13--10-----

a|-8--10--7--8--7----+--10--10--8--11--10-----

E|-------------------+------------------------



Después se repite con “recuerdo frío...”



Cicratizando...

Nuevos tiempos dan respuesta...



Inundado en tu corazón

e|--------------------------------------------

B|--------------------------------------------

G|--------------------------------------------

d|--9-9-9-9-9--7-7-7-7--5-5-5-5-5--7-7-7-7----

a|--7-7-7-7-7--5-5-5-5--3-3-3-3-3--5-5-5-5----

E|--------------------------------------------



Nunca te dejes ahogar

e|--------------------------------------------

B|--------------------------------------------

G|--------------------------------------------

d|--9-9-9-9-9--7-7-7-7--5-5-5-5-5-------------

a|--7-7-7-7-7--5-5-5-5--3-3-3-3-3-------------

E|--------------------------------------------



La verdadera dirección

https://www.coveralia.com/acordes/cicatrizando-malon.php

e|--------------------------------------------

B|--------------------------------------------

G|--------------------------------------------

d|--9-9-9-9-9--7-7-7-7--5-5-5-5-5--7-7-7-7----

a|--7-7-7-7-7--5-5-5-5--3-3-3-3-3--5-5-5-5----

E|--------------------------------------------



vive dentro de tí

e|--------------------------------------------------

B|--------------------------------------------------

G|--------------------------------------------------

d|--9-9-9-9-9--7-7-7-7--5-5-5-5-5--------4--5--7—5v-

a|--7-7-7-7-7--5-5-5-5--3-3-3-3-3---5--7------------

E|--------------------------------------------------



Aca vá un “inter” o un “pre-solo”



e|--------------------------------------------------

B|--------------------------------------------------

G|--------------------------------------------------

d|--------------------------------------------------

a|-------------10-------------10-------8------------

E|--0-0-0-%-%--8---0-0-0-%-%--8---0-0--6------------

pm........ ......... ...



e|--------------------------------------------------

B|--------------------------------------------------

G|--------------------------------------------------

d|--------------------------------------------------

a|-------------12-------10-------8-------6----------

E|--0-0-0-%-%--10--0-0--8--0-0---6--0-0--4----------

pm........ ... ... ...



Luego hace el mismo inter solo que con más 0 con pm



SOLO DEL TANO ROMANO



Después viene todo lo mismo, si conocen el tema se van a guiar





El final es algo así, pero traten de mejorarlo



e|---------------------------------------------------

B|---------------------------------------------------

G|---------------------------------------------------

a|--9/10--9--%-%--10/11--11-%-%---11/12--11--%-%--11-

d|--7/8---7--%-%---8/9---9--%-%----9/10--9---%-%--9--

E|---------------------------------------------------







Letra subida por: Anónimo

El acorde de Cicatrizando de Malon es una versión de la canción original realizada por colaboradores/usuarios de Coveralia.

¿Has encontrado algún error en esta página? Envíanos tu corrección del acorde