música
Buscador

Acorde de Chasing Pirates - Norah Jones

Letra de Chasing Pirates



Intro: F (Dm-C-Dm)







F (Dm, C, Dm)

In your message you said,



you were goin' to bed,

Bb (Gm-F-Gm)

but I'm not done with the night.







F (Dm, C, Dm)

So I stayed up and read,



but your words in my head,

Bb (Gm-F-Gm)

got me mixed up so I turned out the light.







Bb C F (Dm, C, Dm)

And I, don't know how, to slow it down.

Bb C F (Dm, C, Dm)

My mind's racing from chasing pirates.







Well the man in there swings

while the silliest things

floppin around in my brain.







And I try not to dream

but them possible schemes

swim around, wanna drown me in synch.







And I, don't know how, to slow it down.

Oh my mind's racing from chasing pirates.

https://www.coveralia.com/acordes/chasing-pirates-norah-jones.php







Solo:



F (Dm, C, Dm) Bb (Gm-F-Gm)

e|-------1-3-1----------1-3-1---------------|

B|---1-3-------3----1-3-------3----1-3------|

G|-------------------------------------2----|

D|------------------------------------------|

A|------------------------------------------|

E|------------------------------------------|



F (Dm, C, Dm) Bb (Gm-F-Gm)

e|-------1-3-1----------5-3-1-------1-------------|

B|---1-3-------3----1-3-------3---3---------------|

G|------------------------------------2-0-2-0-----|

D|--------------------------------------------3---|

A|------------------------------------------------|

E|------------------------------------------------|







And I, don't know how, to slow it down.

Oh my mind's racing from chasing pirates.





My mind's racin' from chasing pirates... 3x









Used chords:



EADGBe

F----------133211

Dm---------xx0231

C----------x32010

Bb---------x13331

Gm---------355333





Letra subida por: Anónimo

Discos en los que aparece este acorde: The Fall (Deluxe Edition) , The Fall , Chasing Pirates (Cd Single)

El acorde de Chasing Pirates de Norah Jones es una versión de la canción original realizada por colaboradores/usuarios de Coveralia.

¿Has encontrado algún error en esta página? Envíanos tu corrección del acorde