música
Buscador

Acorde de Cat Scratch Fever - Motörhead

Letra de Cat Scratch Fever



Intro:

Eb --------- -------- --------- -------

Bb --------- -------- --------- -------

Gb --------- -------- --------- -------

Db --------- -------- --------- ------- 4x

Ab -2-4-5-5- -2-4-5-- -2-4-5-5- -5-4-2-

Eb -0-2-3-3- -0-2-3-- -0-2-3-3- -3-2-0-



Eb5

Well I don't know where they come from, but they sure

do come

Db5 Ab5 Eb5

I hope they're coming for me

Eb5

And I don't know how they do it, but they do it real

good

Db5 Ab5 Eb5

I hope they do it for free



Eb --------- -------- --------- -------

Bb --------- -------- --------- -------

Gb --------- -------- --------- -------

Db --------- -------- --------- -------

Ab -2-4-5-5- -2-4-5-- -2-4-5-5- -5-4-2-

Eb -0-2-3-3- -0-2-3-- -0-2-3-3- -3-2-0-

They give me cat scratch fever

cat scratch fever



Eb5

First time that I got it I was thirteen years old!

C#5 Ab5 Eb5

Pussy cat livin' next door

Eb5

And I went to see the doctor and he put me on hold

C#5 Ab5 Eb5

He said there wasn't no cure



Eb --------- -------- --------- -------

Bb --------- -------- --------- -------

Gb --------- -------- --------- -------

Db --------- -------- --------- -------

Ab -2-4-5-5- -2-4-5-- -2-4-5-5- -5-4-2-

Eb -0-2-3-3- -0-2-3-- -0-2-3-3- -3-2-0-

He said it's cat scratch fever

cat scratch fever

He said it's cat scratch fever

cat scratch fever



A5 F#5 A5

I'm not in danger, I'm not in pain, I'm moving like a

F#5

https://www.coveralia.com/acordes/cat-scratch-fever-motorhead.php

train

A5 F#5

You know you got it 'cause it makes you insane

A5 B5

It makes you want to do it, do it, wasting my brain



Base solo:



Eb --------- -------- --------- -------

Bb --------- -------- --------- -------

Gb --------- -------- --------- -------

Db --------- -------- --------- ------- 2x

Ab -2-4-5-5- -2-4-5-- -2-4-5-5- -5-4-2-

Eb -0-2-3-3- -0-2-3-- -0-2-3-3- -3-2-0-



Ab5 Bb5 Gb5 Ab5



Eb --------- -------

Bb --------- -------

Gb --------- -------

Db --------- -------

Ab -2-4-5-5- -5-4-2-

Eb -0-2-3-3- -3-2-0-



Ab5 Bb5 Gb5 Ab5



Eb --------- -------- --------- -------

Bb --------- -------- --------- -------

Gb --------- -------- --------- -------

Db --------- -------- --------- -------

Ab -2-4-5-5- -2-4-5-- -2-4-5-5- -5-4-2-

Eb -0-2-3-3- -0-2-3-- -0-2-3-3- -3-2-0-



Eb5

Well I make that kitten happy with the tongue and the

hand

Db5 Ab5 Eb5

She wave her tail at me

Db5

She knows just where to come to find a sensitive man

Db5 Ab5 Eb5

I give it to her for free



Eb --------- -------- --------- -------

Bb --------- -------- --------- -------

Gb --------- -------- --------- -------

Db --------- -------- --------- -------

Ab -2-4-5-5- -2-4-5-- -2-4-5-5- -5-4-2-

Eb -0-2-3-3- -0-2-3-- -0-2-3-3- -3-2-0-

Cat scratch fever

Cat scratch fever

Letra subida por: Anónimo

Discos en los que aparece este acorde: March Or Die , Hit Collection , Hellraiser: Best Of The Epic Years , Under Cöver

El acorde de Cat Scratch Fever de Motörhead es una versión de la canción original realizada por colaboradores/usuarios de Coveralia.

żHas encontrado algún error en esta página? Envíanos tu corrección del acorde