música
Buscador

Acorde de Castigador Por Herencia - Malon

Letra de Castigador Por Herencia

X= silencio.

/= slide, en este caso no se hace un slide rápido, sino lentamente, para que

suenen todas las notas.



Introducción:

G ------------------------------------------------ |

D ------------------------------------------------ |

A ------------------------------------------------ |

E 2-4-2-4-2-4-2-4-X---2-4-2-4-2-4-2-4-X- | X4

Riff:

G ------------------- | G -----------------------

D ------------------- | D -----------------------

A ------------------- | A -----------------------

E 2222-4-2222-4- | X3 E 2222-4-2222-4-5-4-

Canto (Harto de caer, llegó el paisano...):

G ------------------- G ----------------------- |

D ------------------- D ----------------------- |

A ------------------- A ----------------------- |

E 2222-4-2222-4- | X3 E 2222-4-2222-4-5-4- | Todo X2

Castigador por herencia de su padre...

G ------------------------------------------------------------------ |

D ------------------------------------------------------------------ |

A ------------------------------------------------------------------ |

E 2-2/3/2-2/3/2-2/3/2---6/5-6---2-2/3/2-2/3/2-2/3/2---5-3- | X2

No hubo para él ninguna chance...

G ------------------- G ----------------------- |

D ------------------- D ----------------------- |

A ------------------- A ----------------------- |

E 2222-4-2222-4- | X3 E 2222-4-2222-4-5-4- | Todo X2

En la caldera del diablo hierve su infancia...

G ------------------------------------------------------------------ |

D ------------------------------------------------------------------ |

A ------------------------------------------------------------------ |

E 2-2/3/2-2/3/2-2/3/2---6/5-6---2-2/3/2-2/3/2-2/3/2---5-3- | X2

Se queda la guitarra sola, haciendo el Riff 2 una vez y ahí:

https://www.coveralia.com/acordes/castigador-por-herencia-malon.php

Riff II:

G --------------------------------------------------------------- |

D --------------------------------------------------------------- |

A --------------------------------------------------------------- |

E 2-3-2-3-2-3-2-3-2-3-2-3-2-3-2-3-2-3---2---3333-3/2- | X6

En su alma resentida...

G --------------------------------------------------------------- |

D --------------------------------------------------------------- |

A --------------------------------------------------------------- |

E 2---2-3---2-3-4---2-3---2-3---2-3---2-3-4---2-3---2-3- | X2

G -------------------------------------------------------------------------------|

D -------------------------------------------------------------------------------|

A -------------------------------------------------------------------------------|

E 2-3-2-3-2-3-2-3-2-3-2-3-2-3-2-3-2-3-2-3-2-3-2-3-2-3-2-3-2-3-2-3- | X2

Durante el solo:

G -----------------------------------------------------------------------------

D -----------------------------------------------------------------------------

A -----------------------------------------------------------------------------

E 2222-3-2222-3---2222-3-2222-3-5-4---2222-3-2222-3--- sigue...

G --------------------------------------------------------------------

D --------------------------------------------------------------------

A --------------------------------------------------------------------

E 3-4-5-X-3-4-5-X-3-4-5-X---33333-44444-55555-3333-4-

Daño incondicional...

G ------------------- G ----------------------- |

D ------------------- D ----------------------- |

A ------------------- A ----------------------- |

E 2222-4-2222-4- | X3 E 2222-4-2222-4-5-4- | Todo X2

Por homicida le encajaron 15 años...

G ------------------------------------------------------------------ |

D ------------------------------------------------------------------ |

A ------------------------------------------------------------------ |

E 2-2/3/2-2/3/2-2/3/2---6/5-6---2-2/3/2-2/3/2-2/3/2---5-3- | X2

Parte final: se hace la introducción.

Letra subida por: Anónimo

El acorde de Castigador Por Herencia de Malon es una versión de la canción original realizada por colaboradores/usuarios de Coveralia.

¿Has encontrado algún error en esta página? Envíanos tu corrección del acorde