música
Buscador

Acorde de Cárcel Hospital O Muerte - Bersuit Vergarabat

Letra de Cárcel Hospital O Muerte

    C5        B5       E5        C5      B5      E5

E|-------|---------|---------|-------|---------|---|

B|-------|---------|---------|-------|---------|---|

G|-------|---------|---------|-------|---------|---|

D|-2-2-2-|-1-1-2-4-|-5-2-----|-2-2-2-|-1-1-2-4-|-2-|

A|-------|---------|-----2---|-------|---------|---|

E|-------|---------|-------3-|-------|---------|---|





C5 B5 E5 C5 B5 E5

E|-------|---------|---------|-------|---------|---|

B|-------|---------|---------|-------|---------|---|

G|-------|---------|---------|-------|---------|---|

D|-2-2-2-|-1-1-2-4-|-5-2-----|-5-5-5-|-4-4-5-4-|-2-|

A|-------|---------|-----2---|-------|---------|---|

E|-------|---------|-------3-|-------|---------|---|



C5 B5 E5

Date una oportunidad compañero

C5 B5 E5

volvé porque acá no vas a estar más solo,

C5 B5 E5

no te quedes con la primera impresión

C5 B5 E5

si es que te parecemos un puñado de locos



(IGUAL A LA 1ER ESTROFA)

ya fuiste carne de cañón

Y perdiste la razón

ya cruzaste la franja

Y también bebiste de la zanja

el puntero sigue siempre ahí en la esquina

ya probaste todo lo que desafía a esta vida



(En "y perdiste la razón" hace una bajada cromática desde E hasta A#)



G5 C5 B5 E5

ya trataste de parar de mil maneras y más

G5 C5 B5 E5

ya te autoengañaste y te autoflagelaste

C5 B5 E5

podes parar y que se te vaya el deseo

C5 B5 E5

podes tener un despertar espiritual pero primero





https://www.coveralia.com/acordes/carcel-hospital-o-muerte-bersuit-vergarabat.php

C5 B5 E5 A#5 B5 E5

grupo, padrino, programa, servicio o cárcel, hospital o muerte

C5 B5 E5 A#5 B5 E5

grupo, padrino, programa, servicio o cárcel, hospital o muerte



C5 B5 E5 C5 B5 E5

E|-------|---------|---------|---------|---------|---|

B|-------|---------|---------|---------|---------|---|

G|-------|---------|---------|---------|---------|---|

D|-2-2-2-|-1-1-2-4-|-5-2-----|---------|---------|---|

A|-------|---------|-----2---|-3-3-5-3-|-2-2-3-2-|---|

E|-------|---------|-------3-|---------|---------|-0-|



(IGUAL A 1ER ESTROFA)

sos bienvenido a esta hermosa cofradía

se nos vino la noche pero hoy nos sonríe el día

nosotros somos los esclavos del silencio

dueños de las palabras y de un fuego muy intenso



Tu vieja forma de vivir vos ya la conoces

aquí hay una nueva, no tenes más nada que perder

ya no estas obligado a seguir perdiendo

G5 B5 E5

a seguir huyendo, a seguir muriendo



(IGUAL A 3ER ESTROFA)

ya chocaste ocho mil veces con la misma piedra

no tenés por qué vivir siempre una vida de mierda,

esto es muy fácil, no hay más vueltas no

vos tenes los dos caminos, depende de vos



grupo, padrino, programa, servicio o cárcel, hospital o muerte

grupo, padrino, programa, servicio o cárcel, hospital o muerte

grupo, padrino, programa, servicio o cárcel, hospital o muerte

grupo, padrino, programa, servicio o cárcel, hospital o muerte

muerte!!



C5 B5 E5

E|-------|---------|-----------|

B|-------|---------|-----------|

G|-------|---------|-----------|

D|-2-2-2-|-1-1-2-4-|-2---------|

A|-------|---------| --2-------|

E|-------|---------|-----3-0-0-|



Letra subida por: Anónimo

Discos en los que aparece este acorde: La Nube Rosa

El acorde de Cárcel Hospital O Muerte de Bersuit Vergarabat es una versión de la canción original realizada por colaboradores/usuarios de Coveralia.

¿Has encontrado algún error en esta página? Envíanos tu corrección del acorde