música
Buscador

Acorde de Brain Stew - Green Day

Letra de Brain Stew

Introdução (x2):

G# F# F E D#

e--------------------|

B--------------------|

G--------------------|

D-66--44--33--22-11--| DISTORÇÃO

A-66--44--33--22-11--|

D-66--44--33--22-11--|



Verso (x8):

G# F# F E D#

e--------------------|

B--------------------|

G--------------------|

D-66--44--33--22-11--| DISTORÇÃO

A-66--44--33--22-11--|

D-66--44--33--22-11--|

G# F# F E D#

I'm having trouble trying to sleep.

G# F# F E D#

I'm counting sheep but running out.

G# F# F E D#

As time ticks by, And l still try.

G# F# F E D#

No rest for crosstops in my mind. On my own...here we go.



My eyes feel like they're going to bleed.

Dried up and bulging out my skull.

My mouth is dry. My face is numb.

Fucked up and spun out in my room. On my own...here we go.



Ponte (x2):

G# F# F E D#

e----xxxxxx----xxxxxx----xxxxxx----xx----xx-|

B----xxxxxx----xxxxxx----xxxxxx----xx----xx-|

G----xxxxxx----xxxxxx----xxxxxx----xx----xx-|

D-66-xxxxxx-44-xxxxxx-33-xxxxxx-22-xx-11-xx-| DISTORÇÃO

A-66-xxxxxx-44-xxxxxx-33-xxxxxx-22-xx-11-xx-|

D-66-xxxxxx-44-xxxxxx-33-xxxxxx-22-xx-11-xx-|



Verso (x4):



My mind is set on overdrive.

The clock is laughing in my face.

A crooked spine. My sense dulled.

Passed the point of delirium. On my own...here we go.





Versão 2:

---------



Tab symbols used:

x - rake



Note:

You Have to Palm Mute the whole song



https://www.coveralia.com/acordes/brain-stew-green-day.php

Riff 1:

e|----------------------------------|

B|----------------------------------|

G|----------------------------------|

D|-9-9-----8-8-----7-7-----6-6--5-5-|

A|-9-9-----8-8-----7-7-----6-6--5-5-|

E|-7-7-----6-6-----5-5-----4-4--3-3-|



Riff 2:

e|-------------------------------------------|

B|-------------------------------------------|

G|-------------------------------------------|

D|-9-9-(9)----8-8-(8)----7-7-(7)----6-6--5-5-|

A|-9-9-(9)----8-8-(8)----7-7-(7)----6-6--5-5-|

E|-7-7-(7)----6-6-(6)----5-5-(5)----4-4--3-3-|



Riff 3:

e|-----------------------------------------------------------|

B|-----------------------------------------------------------|

G|-----------------------------------------------------------|

D|-9-9--x-x-x-x-x--8-8--x-x-x-x-x--7-7--x-x-x-x-x--6-6-x-5-5-|

A|-9-9--x-x-x-x-x--8-8--x-x-x-x-x--7-7--x-x-x-x-x--6-6-x-5-5-|

E|-7-7--x-x-x-x-x--6-6--x-x-x-x-x--5-5--x-x-x-x-x--4-4-x-3-3-|





PROCEDURE

Do Riff 1, 6 Times

Do Riff 2, 6 Times

Do Riff 3, 2 Times

Do Riff 2, 4 Times

Do Riff 3, 2 Times

Do Riff 2, 4 Times

Do Riff 3, 6 Times



LYRICS

I'm having trouble trying to sleep

I'm counting sheep but running out

As time ticks by

And still I try

No rest for crosstops in my mind

On my own ... here we go



My eyes feel like they're going to bleed

Dried up and bulging out my skull

My mouth is dry

My face is numb

Fucked up and spun out in my room

On my own ... here we go



My mind is set on overdrive

The clock is laughing in my face

A crooked spine

My sense dulled

Passed the point of delirium

On my own ... here we go

Letra subida por: Anónimo

El acorde de Brain Stew de Green Day es una versión de la canción original realizada por colaboradores/usuarios de Coveralia.

¿Has encontrado algún error en esta página? Envíanos tu corrección del acorde