música
Buscador

Acorde de Another You (Feat. Mr. Probz) (Festival Mix) - Armin Van Buuren

Letra de Another You (Feat. Mr. Probz) (Festival Mix)



[Intro]



D F#m Bm D/C#





[Verse1]



D F#m Bm D/C#

I'm not saying I'm not sorry Just looking for another you

D E Bm

It's not getting any better But what can I do

F#m E Bm

When there's something wrong When we keep holding on To the best days

D E Bm [nc]

I'm not saying I'm not sorry Just looking for another you



Riff1

e|------------------------------------------------------------------|

B|------------------------------------------------------------------|

G|---------------------------------4---4---4---4---7---7---6---6----|

D|-4---4---4---4---7-4-7-4-7-4-7-4---4---4---4---4---4---4---4---4--|

A|---5---5---5---5--------------------------------------------------|

E|------------------------------------------------------------------|



Riff2

e|------------------------------------------------------------------|

B|------------------------------------------------------------------|

G|---------------------------------4---4---4---4---7---7---7-6-4----|

D|-4---4---4---4---7-4-7-4-7-4-7-4---4---4---4---4---4---4-------7--|

A|---5---5---5---5--------------------------------------------------|

E|------------------------------------------------------------------|



Riff1

e|------------------------------------------------------------------|

B|------------------------------------------------------------------|

G|---------------------------------4---4---4---4---7---7---6---6----|

D|-4---4---4---4---7-4-7-4-7-4-7-4---4---4---4---4---4---4---4---4--|

A|---5---5---5---5--------------------------------------------------|

E|------------------------------------------------------------------|



Riff3

e|------------------------------------------------------------------|

B|------------------------------------------------------------------|

G|---------------------------------4---4---4---4---4----------------|

D|-4---4---4---4---7-4-7-4-7-4-7-4---4---4---4---4------------------|

A|---5---5---5---5--------------------------------------------------|

E|------------------------------------------------------------------|





[Pre-chorus1]

(Riff1, Riff2, Riff1, Riff3)



D F#m Bm D/C#

Looking for another you____

D E Bm

Just looking for another you

F#m E Bm D/C#

another, another

https://www.coveralia.com/acordes/another-you--feat--mr--probz---festival-mix--armin-van-buuren.php

D E Bm N.C.

you Just looking for another, looking for another you (you) (you)





[Heavy instrumental]

(Riff1, Riff2, Riff1, Riff3)



D F#m Bm D/C#

D F#m Bm D/C#

D F#m Bm D/C#

D F#m Bm N.C.

Just looking for another, looking for another you (you) (you)





[Verse2]



D F#m Bm D/C#

I don't know any other way to show

D E D/C# Bm

It's not getting any better I think we both know that

A C#m F#m E

When there's something wrong When we keep holding on To the best days

A Bm D

I'm not saying I'm not sorry Just looking for another you





[Pre-chorus2]

(Riff1, Riff2, Riff1, Riff3)



D F#m Bm

I'm just - looking for another I'm just - looking for another you

D F#m Bm

I'm just - looking for another I'm just - looking for another you

D F#m Bm D/C#

I'm just - looking for another I'm just - looking for another you

D / / / / / /

looking for another you





[Heavy instrumental]

(Riff1, Riff2, Riff1, Riff3)



D F#m Bm D/C#

D F#m Bm D/C#

looking for another you

D F#m Bm D/C#

D F#m Bm [nc]

looking for another, looking for another you (you) (you)



Chords:

D xx0232

F#m 244222

Bm x24432

D/C# x40230

E 022100

A 577655

C#m x46654

Letra subida por: Anónimo

Discos en los que aparece este acorde: The Best Of Armin Only

El acorde de Another You (Feat. Mr. Probz) (Festival Mix) de Armin Van Buuren es una versión de la canción original realizada por colaboradores/usuarios de Coveralia.

¿Has encontrado algún error en esta página? Envíanos tu corrección del acorde