Quantcast
música
Buscador

Acorde de All I Want To Do Is Rock - Travis

Letra de All I Want To Do Is Rock



Capo 2nd fret



Chords:

C (x32010)

Cmaj7(x32000)

C* (x32310)

G (320033)

F (133211)

Fm (133111)



Verse:

C Cmaj7 G

Hey, I would really like to talk with you

C

Girl, do you have the time to stop

C* F Fm

Say, all I wanna do is rock, uh

C

If this was any other day

G

I'd turn and walk the other way

C F

But today I'll stay

C G

Not walk away



Verse 2: same as Verse 1



Solo:

C Cmaj7 G G G

C C* F Fm

C G C F



https://www.coveralia.com/acordes/all-i-want-to-do-is-rock-travis.php

e|-------------------------------------------------------------|

B|-------------------------------------------------------------|

G|-------------------------------------------------------------|

D|------------------------------------------4---------------5--|

A|---5---3-5-3---------------------5^7--5----------------------|

E|--------------5^7-----5-7-5----5--------------5-7^9-7--7-5---|



e|-------------------------------|

B|-------------------------------|

G|-------------------------------|

D|-------------------------------|

A|--5------7^9------5--7^9--5----|

E|-------5-----5-7-------------5-|





Bridge:

C G

Hey!------

C

Love!-----



Outro:

C* F Fm

Say, all I wanna do is rock, uh

C

If this was any other day

G

I'd turn and walk the other way

C F C

But today I'll stay okay.





Letra subida por: Anónimo

El acorde de All I Want To Do Is Rock de Travis es una versión de la canción original realizada por colaboradores/usuarios de Coveralia.

¿Has encontrado algún error en esta página? Envíanos tu corrección del acorde