música
Buscador

Acorde de 30.000 Plegarias - Malon

Letra de 30.000 Plegarias

Intro:

[ D5 / C5 - D5 / E5 - F5 / G5 - F5 / E5 - F5 - C5 - D5 ]X2



d|------------------------------------------------------------|

A|------------------------------------------------------------|

F|-4----------|-5-4----------|--------------|-------7~-7-9-11-|

C|-4----------|-5-4----------|--------------|-------7~-7-9-11-|

G|-2----------|-3-2----------|-0------------|-------5~-5-7-9--|

D|---3-0-0-0~-|-----3-0-0-0~-|---3-2-0-0-0~-|-3-2-0-----------| X2



Años de luchar, de mucho sufrir

ofreciendo dignidades,

sangre y sudor y en mi corazón

se que no he muerto en vano.



A5# C5

Hoy no me dejes caer



Riff 1

1|--------------------------|

|--------------------------|

|---------9----------9--7--|

|---------9----------9--7--|

|---------7----------7--5--|

6|--0-0-0-0---0-0-0-0-------|



A5# C

en las sombras que ayer

truncaron mi destino.



1|---------|

|---------|

|---------|

|-----2~--|

|-----2~--|

6|-3-2-0~--|



Con Intro como base

La culpa apretó, la conciencia se quebró

revelando las verdades

Tortura y horror y en tu corazón

la esperanza no agoniza.



A5# C5

Hoy no me dejes caer



Riff 1



A5# C5

en las sombras que ayer

Riff 2 D5 C5

truncaron mi destino.

A5# C5



Vos no me dejes caer



Riff 1

A5# C5

https://www.coveralia.com/acordes/30-000-plegarias-malon.php

en las sombras que hoy

Riff 2

me arrastran al olvido.



D5

¡Oh Oh Oh Oh!

D5

¡Oh Oh Oh Oh!

C5 B5 C5 E5 F5 D5 E5 C5 D5

¡Oh Oh Oh Oh Oh-Oh Oh-Oh-Oh-Oh!

D5

¡Oh Oh Oh Oh!

D5

¡Oh Oh Oh Oh-Oh!

C5 B5 C5 E5 F5 D5 E5 C5 D5

¡Oh Oh Oh Oh Oh-Oh Oh-Oh-Oh-Oh!

D5

¡Oh Oh Oh Oh!

D5

¡Oh Oh Oh Oh-Oh!

*3

¡Oh Oh-Oh-Oh Oh Oh!



y esto iría al final, abajo de *1 y *2:



*3

1|------------------------------------------------|

|------------------------------------------------|

|------------------------------------------------|

|--------------4-5-5-5--7-7-7------------9-------|

|-7-7-7-7-7--7-2-3-3-3--5-5-5----------5-7-9-5-2-|

6|-5-5-5-5-5--5-----------------0-0-0-0-3---7-3-0-|



A5# C5

Hoy no me dejes caer

Riff 1

A5# C5

en las sombras que ayer

Riff 2 D5 C5

truncaron mi destino.



A5# C5

Vos no me dejes caer

Riff 1

A5# C5

en las sombras que hoy

Riff 2 D5 C5

me arrastran al olvido.

A5# C5

en las sombras que ayer

Riff 2 D5 C5

truncaron mi destino.

A5# C5

en las sombras que hoy

Riff 2

me arrastran al olvido.

Letra subida por: Anónimo

Discos en los que aparece este acorde: Justicia O Resistencia , Grandes Exitos

El acorde de 30.000 Plegarias de Malon es una versión de la canción original realizada por colaboradores/usuarios de Coveralia.

¿Has encontrado algún error en esta página? Envíanos tu corrección del acorde