música
Buscador

Acorde de 21st Century Breakdown - Green Day

Letra de 21st Century Breakdown

intro: 



e|------4---4---4--6--4------------|

B|----6---6---6----------7--6------|

G|--6------------------------------|

D|---------------------------------|

A|---------------------------------|

E|---------------------------------|



Intro (base)



C# G# F#



Versos: C# G# F#



refrao: A# F# A# F#* - C# G# F#



repete intro: C# G# F#



versos: C# G# C#



repete refrao: A# F# A# F#* - C# G# F# termina com G#



G#



solinho com as batidas em G#:







B|-----------4--------4---------4----4--6--4--------|

G|---5-5-5---5-5-5---5-5-5----5-----------6--5----|



dai nas batidas: C# G# varias vezes





dai fica batendo soh em C# um tempao

https://www.coveralia.com/acordes/21st-century-breakdown-green-day.php



dai volta pra: C# G# F# - C# xxxxxxx < abafados algumas vezes



volta para C# um tempo



voolta para a sequencia: C# G# F# - C# xxxxxxx < abafados algumas vezes



dai faz: F# G# C#



e as batidas:



F# F# C# G#

F# F# C# G#

F# F# C# G#

F# F# C# G#



G# G# G# G#

e o solo:

Base: C# C/C# A# G# F# A C#



e|-----------------------------------------------------------------------------|

B|-8^-9*--8--8^--8--6---8--5------6--3---------------------------------|

G|-----------------------------------6---------4--4h6^--7*-4--6--3------|

D|--------------------------------------------------------------------------4-|

A|-----------------------------------------------------------------------------|

E|-----------------------------------------------------------------------------|





depois do solo fica essa base pro resto da musica:



C# C/C# A# G# F# A C#







Letra subida por: Anónimo

El acorde de 21st Century Breakdown de Green Day es una versión de la canción original realizada por colaboradores/usuarios de Coveralia.

¿Has encontrado algún error en esta página? Envíanos tu corrección del acorde